  0
SECTION
  2
HEADER
  9
$ACADVER
  1
AC1015
  9
$ACADMAINTVER
 70
    20
  9
$DWGCODEPAGE
  3
ANSI_932
  9
$INSBASE
 10
0.0
 20
0.0
 30
0.0
  9
$EXTMIN
 10
542.791922539129
 20
-107.34476
 30
0.0
  9
$EXTMAX
 10
734.7919225391287
 20
173.777369
 30
0.0
  9
$LIMMIN
 10
295.823646
 20
-107.345757
  9
$LIMMAX
 10
487.825646
 20
173.778374
  9
$ORTHOMODE
 70
     1
  9
$REGENMODE
 70
     1
  9
$FILLMODE
 70
     1
  9
$QTEXTMODE
 70
     0
  9
$MIRRTEXT
 70
     0
  9
$LTSCALE
 40
4.685369
  9
$ATTMODE
 70
     1
  9
$TEXTSIZE
 40
3.2
  9
$TRACEWID
 40
0.05
  9
$TEXTSTYLE
  7
高3.2
  9
$CLAYER
  8
0
  9
$CELTYPE
  6
CONTINUOUS
  9
$CECOLOR
 62
   256
  9
$CELTSCALE
 40
1.0
  9
$DISPSILH
 70
     0
  9
$DIMSCALE
 40
1.0
  9
$DIMASZ
 40
2.5
  9
$DIMEXO
 40
0.25
  9
$DIMDLI
 40
0.2
  9
$DIMRND
 40
0.0
  9
$DIMDLE
 40
0.0
  9
$DIMEXE
 40
1.25
  9
$DIMTP
 40
0.0
  9
$DIMTM
 40
0.0
  9
$DIMTXT
 40
3.0
  9
$DIMCEN
 40
0.0
  9
$DIMTSZ
 40
0.0
  9
$DIMTOL
 70
     0
  9
$DIMLIM
 70
     0
  9
$DIMTIH
 70
     0
  9
$DIMTOH
 70
     0
  9
$DIMSE1
 70
     0
  9
$DIMSE2
 70
     0
  9
$DIMTAD
 70
     3
  9
$DIMZIN
 70
     8
  9
$DIMBLK
  1
Open30
  9
$DIMASO
 70
     1
  9
$DIMSHO
 70
     1
  9
$DIMPOST
  1

  9
$DIMAPOST
  1

  9
$DIMALT
 70
     0
  9
$DIMALTD
 70
     3
  9
$DIMALTF
 40
0.03937007874016
  9
$DIMLFAC
 40
1.0
  9
$DIMTOFL
 70
     1
  9
$DIMTVP
 40
0.0
  9
$DIMTIX
 70
     0
  9
$DIMSOXD
 70
     0
  9
$DIMSAH
 70
     0
  9
$DIMBLK1
  1

  9
$DIMBLK2
  1

  9
$DIMSTYLE
  2
1：1
  9
$DIMCLRD
 70
     0
  9
$DIMCLRE
 70
     0
  9
$DIMCLRT
 70
     4
  9
$DIMTFAC
 40
1.0
  9
$DIMGAP
 40
0.625
  9
$DIMJUST
 70
     0
  9
$DIMSD1
 70
     0
  9
$DIMSD2
 70
     0
  9
$DIMTOLJ
 70
     0
  9
$DIMTZIN
 70
     8
  9
$DIMALTZ
 70
     0
  9
$DIMALTTZ
 70
     0
  9
$DIMUPT
 70
     1
  9
$DIMDEC
 70
     2
  9
$DIMTDEC
 70
     2
  9
$DIMALTU
 70
     2
  9
$DIMALTTD
 70
     3
  9
$DIMTXSTY
  7
STANDARD
  9
$DIMAUNIT
 70
     0
  9
$DIMADEC
 70
     1
  9
$DIMALTRND
 40
0.0
  9
$DIMAZIN
 70
     2
  9
$DIMDSEP
 70
    46
  9
$DIMATFIT
 70
     0
  9
$DIMFRAC
 70
     0
  9
$DIMLDRBLK
  1
Open30
  9
$DIMLUNIT
 70
     2
  9
$DIMLWD
 70
    -2
  9
$DIMLWE
 70
    -2
  9
$DIMTMOVE
 70
     0
  9
$LUNITS
 70
     2
  9
$LUPREC
 70
     4
  9
$SKETCHINC
 40
0.1
  9
$FILLETRAD
 40
0.0
  9
$AUNITS
 70
     0
  9
$AUPREC
 70
     0
  9
$MENU
  1
.
  9
$ELEVATION
 40
0.0
  9
$PELEVATION
 40
0.0
  9
$THICKNESS
 40
0.0
  9
$LIMCHECK
 70
     0
  9
$CHAMFERA
 40
0.0
  9
$CHAMFERB
 40
0.0
  9
$CHAMFERC
 40
0.0
  9
$CHAMFERD
 40
0.0
  9
$SKPOLY
 70
     0
  9
$TDCREATE
 40
2456071.597640926
  9
$TDUCREATE
 40
2456071.222640926
  9
$TDUPDATE
 40
2457070.710193646
  9
$TDUUPDATE
 40
2457070.335193646
  9
$TDINDWG
 40
0.0947638773
  9
$TDUSRTIMER
 40
0.0947632176
  9
$USRTIMER
 70
     1
  9
$ANGBASE
 50
0.0
  9
$ANGDIR
 70
     0
  9
$PDMODE
 70
     0
  9
$PDSIZE
 40
0.0
  9
$PLINEWID
 40
0.0
  9
$SPLFRAME
 70
     0
  9
$SPLINETYPE
 70
     6
  9
$SPLINESEGS
 70
     8
  9
$HANDSEED
  5
15A6
  9
$SURFTAB1
 70
     6
  9
$SURFTAB2
 70
     6
  9
$SURFTYPE
 70
     6
  9
$SURFU
 70
     6
  9
$SURFV
 70
     6
  9
$UCSBASE
  2

  9
$UCSNAME
  2

  9
$UCSORG
 10
0.0
 20
0.0
 30
0.0
  9
$UCSXDIR
 10
1.0
 20
0.0
 30
0.0
  9
$UCSYDIR
 10
0.0
 20
1.0
 30
0.0
  9
$UCSORTHOREF
  2

  9
$UCSORTHOVIEW
 70
     0
  9
$UCSORGTOP
 10
0.0
 20
0.0
 30
0.0
  9
$UCSORGBOTTOM
 10
0.0
 20
0.0
 30
0.0
  9
$UCSORGLEFT
 10
0.0
 20
0.0
 30
0.0
  9
$UCSORGRIGHT
 10
0.0
 20
0.0
 30
0.0
  9
$UCSORGFRONT
 10
0.0
 20
0.0
 30
0.0
  9
$UCSORGBACK
 10
0.0
 20
0.0
 30
0.0
  9
$PUCSBASE
  2

  9
$PUCSNAME
  2

  9
$PUCSORG
 10
0.0
 20
0.0
 30
0.0
  9
$PUCSXDIR
 10
1.0
 20
0.0
 30
0.0
  9
$PUCSYDIR
 10
0.0
 20
1.0
 30
0.0
  9
$PUCSORTHOREF
  2

  9
$PUCSORTHOVIEW
 70
     0
  9
$PUCSORGTOP
 10
0.0
 20
0.0
 30
0.0
  9
$PUCSORGBOTTOM
 10
0.0
 20
0.0
 30
0.0
  9
$PUCSORGLEFT
 10
0.0
 20
0.0
 30
0.0
  9
$PUCSORGRIGHT
 10
0.0
 20
0.0
 30
0.0
  9
$PUCSORGFRONT
 10
0.0
 20
0.0
 30
0.0
  9
$PUCSORGBACK
 10
0.0
 20
0.0
 30
0.0
  9
$USERI1
 70
     0
  9
$USERI2
 70
     0
  9
$USERI3
 70
     0
  9
$USERI4
 70
     0
  9
$USERI5
 70
     0
  9
$USERR1
 40
0.0
  9
$USERR2
 40
0.0
  9
$USERR3
 40
0.0
  9
$USERR4
 40
0.0
  9
$USERR5
 40
0.0
  9
$WORLDVIEW
 70
     1
  9
$SHADEDGE
 70
     3
  9
$SHADEDIF
 70
    70
  9
$TILEMODE
 70
     1
  9
$MAXACTVP
 70
    64
  9
$PINSBASE
 10
0.0
 20
0.0
 30
0.0
  9
$PLIMCHECK
 70
     0
  9
$PEXTMIN
 10
1.000000000000000E+20
 20
1.000000000000000E+20
 30
1.000000000000000E+20
  9
$PEXTMAX
 10
-1.000000000000000E+20
 20
-1.000000000000000E+20
 30
-1.000000000000000E+20
  9
$PLIMMIN
 10
0.0
 20
0.0
  9
$PLIMMAX
 10
12.0
 20
9.0
  9
$UNITMODE
 70
     0
  9
$VISRETAIN
 70
     1
  9
$PLINEGEN
 70
     0
  9
$PSLTSCALE
 70
     1
  9
$TREEDEPTH
 70
  3020
  9
$CMLSTYLE
  2
Standard
  9
$CMLJUST
 70
     0
  9
$CMLSCALE
 40
1.0
  9
$PROXYGRAPHICS
 70
     1
  9
$MEASUREMENT
 70
     0
  9
$CELWEIGHT
370
    -1
  9
$ENDCAPS
280
     0
  9
$JOINSTYLE
280
     0
  9
$LWDISPLAY
290
     0
  9
$INSUNITS
 70
     0
  9
$HYPERLINKBASE
  1

  9
$STYLESHEET
  1

  9
$XEDIT
290
     1
  9
$CEPSNTYPE
380
     0
  9
$PSTYLEMODE
290
     1
  9
$FINGERPRINTGUID
  2
{03377B78-DE69-42D6-8026-AFA74094664F}
  9
$VERSIONGUID
  2
{FD1D4339-B6B0-4FDD-B133-39E29868A356}
  9
$EXTNAMES
290
     1
  9
$PSVPSCALE
 40
0.0
  9
$OLESTARTUP
290
     0
  0
ENDSEC
  0
SECTION
  2
CLASSES
  0
CLASS
  1
ACDBDICTIONARYWDFLT
  2
AcDbDictionaryWithDefault
  3
ObjectDBX Classes
 90
        0
280
     0
281
     0
  0
CLASS
  1
MATERIAL
  2
AcDbMaterial
  3
ObjectDBX Classes
 90
     1153
280
     0
281
     0
  0
CLASS
  1
VISUALSTYLE
  2
AcDbVisualStyle
  3
ObjectDBX Classes
 90
     4095
280
     0
281
     0
  0
CLASS
  1
SCALE
  2
AcDbScale
  3
ObjectDBX Classes
 90
     1153
280
     0
281
     0
  0
CLASS
  1
TABLESTYLE
  2
AcDbTableStyle
  3
ObjectDBX Classes
 90
     4095
280
     0
281
     0
  0
CLASS
  1
MLEADERSTYLE
  2
AcDbMLeaderStyle
  3
ACDB_MLEADERSTYLE_CLASS
 90
     4095
280
     0
281
     0
  0
CLASS
  1
SORTENTSTABLE
  2
AcDbSortentsTable
  3
ObjectDBX Classes
 90
        0
280
     0
281
     0
  0
CLASS
  1
DICTIONARYVAR
  2
AcDbDictionaryVar
  3
ObjectDBX Classes
 90
        0
280
     0
281
     0
  0
CLASS
  1
CELLSTYLEMAP
  2
AcDbCellStyleMap
  3
ObjectDBX Classes
 90
     1152
280
     0
281
     0
  0
CLASS
  1
ACDBPLACEHOLDER
  2
AcDbPlaceHolder
  3
ObjectDBX Classes
 90
        0
280
     0
281
     0
  0
CLASS
  1
LAYOUT
  2
AcDbLayout
  3
ObjectDBX Classes
 90
        0
280
     0
281
     0
  0
ENDSEC
  0
SECTION
  2
TABLES
  0
TABLE
  2
VPORT
  5
8
330
0
100
AcDbSymbolTable
 70
     1
  0
VPORT
  5
8B
330
8
100
AcDbSymbolTableRecord
100
AcDbViewportTableRecord
  2
*Active
 70
     0
 10
0.0
 20
0.0
 11
1.0
 21
1.0
 12
775.0331630893685
 22
25.67453024190343
 13
0.0
 23
0.0
 14
1.0
 24
1.0
 15
0.0
 25
0.0
 16
0.0
 26
0.0
 36
1.0
 17
0.0
 27
0.0
 37
0.0
 40
547.6186910804638
 41
1.725757575757575
 42
50.0
 43
0.0
 44
0.0
 50
0.0
 51
0.0
 71
     0
 72
   100
 73
     1
 74
     1
 75
     0
 76
     0
 77
     0
 78
     0
281
     0
 65
     1
110
0.0
120
0.0
130
0.0
111
1.0
121
0.0
131
0.0
112
0.0
122
1.0
132
0.0
 79
     0
146
0.0
  0
ENDTAB
  0
TABLE
  2
LTYPE
  5
5
330
0
100
AcDbSymbolTable
 70
     4
  0
LTYPE
  5
5A
330
5
100
AcDbSymbolTableRecord
100
AcDbLinetypeTableRecord
  2
ByBlock
 70
     0
  3

 72
    65
 73
     0
 40
0.0
  0
LTYPE
  5
5B
330
5
100
AcDbSymbolTableRecord
100
AcDbLinetypeTableRecord
  2
ByLayer
 70
     0
  3

 72
    65
 73
     0
 40
0.0
  0
LTYPE
  5
5C
330
5
100
AcDbSymbolTableRecord
100
AcDbLinetypeTableRecord
  2
CONTINUOUS
 70
     0
  3
Solid-line
 72
    65
 73
     0
 40
0.0
  0
LTYPE
  5
72
330
5
100
AcDbSymbolTableRecord
100
AcDbLinetypeTableRecord
  2
CENTER
 70
     0
  3
CENTER
 72
    65
 73
     4
 40
2.0
 49
1.25
 74
     0
 49
-0.25
 74
     0
 49
0.25
 74
     0
 49
-0.25
 74
     0
  0
LTYPE
  5
81
330
5
100
AcDbSymbolTableRecord
100
AcDbLinetypeTableRecord
  2
HIDDEN
 70
     0
  3
HIDDEN
 72
    65
 73
     2
 40
0.375
 49
0.25
 74
     0
 49
-0.125
 74
     0
  0
ENDTAB
  0
TABLE
  2
LAYER
  5
2
102
{ACAD_XDICTIONARY
360
40F
102
}
330
0
100
AcDbSymbolTable
 70
     2
  0
LAYER
  5
54
102
{ACAD_XDICTIONARY
360
568
102
}
330
2
100
AcDbSymbolTableRecord
100
AcDbLayerTableRecord
  2
0
 70
     0
 62
     7
  6
CONTINUOUS
370
    -3
390
F
  0
LAYER
  5
3FA
330
2
100
AcDbSymbolTableRecord
100
AcDbLayerTableRecord
  2
Defpoints
 70
     0
 62
     7
  6
CONTINUOUS
290
     0
370
    -3
390
F
  0
ENDTAB
  0
TABLE
  2
STYLE
  5
3
330
0
100
AcDbSymbolTable
 70
     6
  0
STYLE
  5
55
330
3
100
AcDbSymbolTableRecord
100
AcDbTextStyleTableRecord
  2
STANDARD
 70
     0
 40
0.0
 41
1.0
 50
0.0
 71
     0
 42
0.2
  3
TXT
  4
BIGFONT
  0
STYLE
  5
3FB
330
3
100
AcDbSymbolTableRecord
100
AcDbTextStyleTableRecord
  2
高3.2
 70
     0
 40
3.2
 41
1.0
 50
0.0
 71
     0
 42
3.2
  3
txt.shx
  4
bigfont.shx
  0
STYLE
  5
3FC
330
3
100
AcDbSymbolTableRecord
100
AcDbTextStyleTableRecord
  2
高6.3
 70
     0
 40
6.299999999999998
 41
1.0
 50
0.0
 71
     0
 42
6.299999999999998
  3
txt.shx
  4
bigfont.shx
  0
STYLE
  5
3FD
330
3
100
AcDbSymbolTableRecord
100
AcDbTextStyleTableRecord
  2
高2.5
 70
     0
 40
2.5
 41
1.0
 50
0.0
 71
     0
 42
0.2
  3
txt.shx
  4
bigfont.shx
  0
STYLE
  5
3FE
330
3
100
AcDbSymbolTableRecord
100
AcDbTextStyleTableRecord
  2
高4.5
 70
     0
 40
4.5
 41
1.0
 50
0.0
 71
     0
 42
6.299999999999998
  3
txt.shx
  4
bigfont.shx
  0
STYLE
  5
3FF
330
3
100
AcDbSymbolTableRecord
100
AcDbTextStyleTableRecord
  2
高2
 70
     0
 40
2.0
 41
1.0
 50
0.0
 71
     0
 42
2.0
  3
txt.shx
  4
bigfont.shx
  0
ENDTAB
  0
TABLE
  2
VIEW
  5
6
330
0
100
AcDbSymbolTable
 70
     0
  0
ENDTAB
  0
TABLE
  2
UCS
  5
7
330
0
100
AcDbSymbolTable
 70
     0
  0
ENDTAB
  0
TABLE
  2
APPID
  5
9
330
0
100
AcDbSymbolTable
 70
    11
  0
APPID
  5
56
330
9
100
AcDbSymbolTableRecord
100
AcDbRegAppTableRecord
  2
ACAD
 70
     0
  0
APPID
  5
5D
330
9
100
AcDbSymbolTableRecord
100
AcDbRegAppTableRecord
  2
AcadAnnotative
 70
     0
  0
APPID
  5
40A
330
9
100
AcDbSymbolTableRecord
100
AcDbRegAppTableRecord
  2
ACAD_DSTYLE_DIMJOGGED_JOGANGLE_SYMBOL
 70
     0
  0
APPID
  5
40B
330
9
100
AcDbSymbolTableRecord
100
AcDbRegAppTableRecord
  2
ACAD_DSTYLE_DIMJAG
 70
     0
  0
APPID
  5
40C
330
9
100
AcDbSymbolTableRecord
100
AcDbRegAppTableRecord
  2
ACAD_DSTYLE_DIMBREAK
 70
     0
  0
APPID
  5
40D
330
9
100
AcDbSymbolTableRecord
100
AcDbRegAppTableRecord
  2
ACAD_DSTYLE_DIMTALN
 70
     0
  0
APPID
  5
557
330
9
100
AcDbSymbolTableRecord
100
AcDbRegAppTableRecord
  2
ACAD_EXEMPT_FROM_CAD_STANDARDS
 70
     0
  0
APPID
  5
5B0
330
9
100
AcDbSymbolTableRecord
100
AcDbRegAppTableRecord
  2
ACAD_MLEADERVER
 70
     0
  0
APPID
  5
5B5
330
9
100
AcDbSymbolTableRecord
100
AcDbRegAppTableRecord
  2
ACAD_DSTYLE_DIMARC_LENGTH_SYMBOL
 70
     0
  0
APPID
  5
5B6
330
9
100
AcDbSymbolTableRecord
100
AcDbRegAppTableRecord
  2
ACAD_DSTYLE_DIMEXT_LENGTH
 70
     0
  0
APPID
  5
615
330
9
100
AcDbSymbolTableRecord
100
AcDbRegAppTableRecord
  2
ACAD_PSEXT
 70
     0
  0
ENDTAB
  0
TABLE
  2
DIMSTYLE
  5
A
330
0
100
AcDbSymbolTable
 70
     2
100
AcDbDimStyleTable
 71
     2
340
400
340
57
  0
DIMSTYLE
105
57
330
A
100
AcDbSymbolTableRecord
100
AcDbDimStyleTableRecord
  2
Standard
 70
     0
340
55
  0
DIMSTYLE
105
400
330
A
100
AcDbSymbolTableRecord
100
AcDbDimStyleTableRecord
  2
1：1
 70
     0
 41
2.5
 42
0.25
 43
0.2
 44
1.25
 73
     0
 74
     0
 77
     3
 78
     8
 79
     2
140
3.0
141
0.0
143
0.03937007874016
147
0.625
171
     3
172
     1
178
     4
179
     1
271
     2
272
     2
274
     3
283
     0
284
     8
288
     1
289
     0
340
55
341
36A
342
36A
1001
ACAD_DSTYLE_DIMARC_LENGTH_SYMBOL
1070
   379
1070
     2
1001
ACAD_DSTYLE_DIMEXT_LENGTH
1070
   378
1040
1.25
1001
ACAD_DSTYLE_DIMJOGGED_JOGANGLE_SYMBOL
1070
   384
1040
1.570796326794896
  0
ENDTAB
  0
TABLE
  2
BLOCK_RECORD
  5
1
330
0
100
AcDbSymbolTable
 70
    16
  0
BLOCK_RECORD
  5
6B
102
{ACAD_XDICTIONARY
360
AB1
102
}
330
1
100
AcDbSymbolTableRecord
100
AcDbBlockTableRecord
  2
*Model_Space
340
6E
  0
BLOCK_RECORD
  5
67
330
1
100
AcDbSymbolTableRecord
100
AcDbBlockTableRecord
  2
*Paper_Space
340
6A
  0
BLOCK_RECORD
  5
36A
330
1
100
AcDbSymbolTableRecord
100
AcDbBlockTableRecord
  2
_Open30
340
0
102
{BLKREFS
331
EA5
331
EA6
331
EAE
331
EAF
331
EB7
331
EB8
331
EC9
331
ECA
331
1159
331
115A
331
1162
331
1163
331
116B
331
116C
331
1174
331
1175
331
117D
331
117E
331
1429
331
142A
331
1432
331
1433
331
143B
331
143C
331
1444
331
1445
331
144D
331
144E
331
1456
331
1457
102
}
  0
BLOCK_RECORD
  5
A46
330
1
100
AcDbSymbolTableRecord
100
AcDbBlockTableRecord
  2
*D1
340
0
  0
BLOCK_RECORD
  5
A52
330
1
100
AcDbSymbolTableRecord
100
AcDbBlockTableRecord
  2
*D2
340
0
  0
BLOCK_RECORD
  5
A5E
330
1
100
AcDbSymbolTableRecord
100
AcDbBlockTableRecord
  2
*D3
340
0
  0
BLOCK_RECORD
  5
A6A
330
1
100
AcDbSymbolTableRecord
100
AcDbBlockTableRecord
  2
*D4
340
0
  0
BLOCK_RECORD
  5
A76
330
1
100
AcDbSymbolTableRecord
100
AcDbBlockTableRecord
  2
*D5
340
0
  0
BLOCK_RECORD
  5
F76
330
1
100
AcDbSymbolTableRecord
100
AcDbBlockTableRecord
  2
*D6
340
0
  0
BLOCK_RECORD
  5
F82
330
1
100
AcDbSymbolTableRecord
100
AcDbBlockTableRecord
  2
*D7
340
0
  0
BLOCK_RECORD
  5
F8E
330
1
100
AcDbSymbolTableRecord
100
AcDbBlockTableRecord
  2
*D8
340
0
  0
BLOCK_RECORD
  5
F9A
330
1
100
AcDbSymbolTableRecord
100
AcDbBlockTableRecord
  2
*D9
340
0
  0
BLOCK_RECORD
  5
11F4
330
1
100
AcDbSymbolTableRecord
100
AcDbBlockTableRecord
  2
*D10
340
0
  0
BLOCK_RECORD
  5
1200
330
1
100
AcDbSymbolTableRecord
100
AcDbBlockTableRecord
  2
*D11
340
0
  0
BLOCK_RECORD
  5
120C
330
1
100
AcDbSymbolTableRecord
100
AcDbBlockTableRecord
  2
*D12
340
0
  0
BLOCK_RECORD
  5
1218
330
1
100
AcDbSymbolTableRecord
100
AcDbBlockTableRecord
  2
*D13
340
0
  0
BLOCK_RECORD
  5
1224
330
1
100
AcDbSymbolTableRecord
100
AcDbBlockTableRecord
  2
*D14
340
0
  0
BLOCK_RECORD
  5
128A
330
1
100
AcDbSymbolTableRecord
100
AcDbBlockTableRecord
  2
*D15
340
0
  0
ENDTAB
  0
ENDSEC
  0
SECTION
  2
BLOCKS
  0
BLOCK
  5
6C
330
6B
100
AcDbEntity
  8
0
100
AcDbBlockBegin
  2
*Model_Space
 70
     0
 10
0.0
 20
0.0
 30
0.0
  3
*Model_Space
  1

  0
ENDBLK
  5
6D
330
6B
100
AcDbEntity
  8
0
100
AcDbBlockEnd
  0
BLOCK
  5
68
330
67
100
AcDbEntity
 67
     1
  8
0
100
AcDbBlockBegin
  2
*Paper_Space
 70
     0
 10
0.0
 20
0.0
 30
0.0
  3
*Paper_Space
  1

  0
ENDBLK
  5
69
330
67
100
AcDbEntity
 67
     1
  8
0
100
AcDbBlockEnd
  0
BLOCK
  5
36B
330
36A
100
AcDbEntity
  8
0
100
AcDbBlockBegin
  2
_Open30
 70
     0
 10
0.0
 20
0.0
 30
0.0
  3
_Open30
  1

  0
LINE
  5
36C
330
36A
100
AcDbEntity
  8
0
  6
ByBlock
 62
     0
370
    -2
100
AcDbLine
 10
-1.0
 20
0.267949
 30
0.0
 11
0.0
 21
0.0
 31
0.0
  0
LINE
  5
36D
330
36A
100
AcDbEntity
  8
0
  6
ByBlock
 62
     0
370
    -2
100
AcDbLine
 10
0.0
 20
0.0
 30
0.0
 11
-1.0
 21
-0.267949
 31
0.0
  0
LINE
  5
36E
330
36A
100
AcDbEntity
  8
0
  6
ByBlock
 62
     0
370
    -2
100
AcDbLine
 10
0.0
 20
0.0
 30
0.0
 11
-1.0
 21
0.0
 31
0.0
  0
ENDBLK
  5
36F
330
36A
100
AcDbEntity
  8
0
100
AcDbBlockEnd
  0
BLOCK
  5
A47
330
A46
100
AcDbEntity
  8
0
100
AcDbBlockBegin
  2
*D1
 70
     1
 10
0.0
 20
0.0
 30
0.0
  3
*D1
  1

  0
LINE
  5
EA2
330
A46
100
AcDbEntity
  8
0
 62
     0
370
    -2
100
AcDbLine
 10
619.8810964187909
 20
-41.84303599999998
 30
0.0
 11
567.4280356691722
 21
-41.84303599999997
 31
0.0
  0
LINE
  5
EA3
330
A46
100
AcDbEntity
  8
0
 62
     0
370
    -2
100
AcDbLine
 10
619.8810964187909
 20
104.156964
 30
0.0
 11
567.4280356691722
 21
104.156964
 31
0.0
  0
LINE
  5
EA4
330
A46
100
AcDbEntity
  8
0
 62
     0
370
    -2
100
AcDbLine
 10
568.6780356691722
 20
-39.34303599999997
 30
0.0
 11
568.6780356691722
 21
101.656964
 31
0.0
  0
INSERT
  5
EA5
330
A46
100
AcDbEntity
  8
0
 62
     0
370
    -2
100
AcDbBlockReference
  2
_Open30
 10
568.6780356691722
 20
-41.84303599999997
 30
0.0
 41
2.5
 42
2.5
 43
2.5
 50
270.0
  0
INSERT
  5
EA6
330
A46
100
AcDbEntity
  8
0
 62
     0
370
    -2
100
AcDbBlockReference
  2
_Open30
 10
568.6780356691722
 20
104.156964
 30
0.0
 41
2.5
 42
2.5
 43
2.5
 50
90.0
  0
MTEXT
  5
EA7
330
A46
100
AcDbEntity
  8
0
 62
     4
100
AcDbMText
 10
566.5530356691722
 20
42.6569640000001
 30
0.0
 40
3.0
 41
0.0
 71
     5
 72
     1
  1
146
 11
0.0000000000000001
 21
1.0
 31
0.0
 73
     1
 44
1.0
1001
ACAD
1000
MTEXTBEGIN
1070
    73
1070
     1
1070
    44
1040
1.0
1070
    74
1070
     0
1000
MTEXTEND
  0
POINT
  5
EA8
330
A46
100
AcDbEntity
  8
Defpoints
 62
     0
100
AcDbPoint
 10
620.1310964187909
 20
-41.84303599999998
 30
0.0
  0
POINT
  5
EA9
330
A46
100
AcDbEntity
  8
Defpoints
 62
     0
100
AcDbPoint
 10
620.1310964187909
 20
104.156964
 30
0.0
  0
POINT
  5
EAA
330
A46
100
AcDbEntity
  8
Defpoints
 62
     0
100
AcDbPoint
 10
568.6780356691722
 20
104.156964
 30
0.0
  0
ENDBLK
  5
A48
330
A46
100
AcDbEntity
  8
0
100
AcDbBlockEnd
  0
BLOCK
  5
A53
330
A52
100
AcDbEntity
  8
0
100
AcDbBlockBegin
  2
*D2
 70
     1
 10
0.0
 20
0.0
 30
0.0
  3
*D2
  1

  0
LINE
  5
EAB
330
A52
100
AcDbEntity
  8
0
 62
     0
370
    -2
100
AcDbLine
 10
605.8810964187907
 20
-16.84303600000004
 30
0.0
 11
580.842508870175
 21
-16.84303600000003
 31
0.0
  0
LINE
  5
EAC
330
A52
100
AcDbEntity
  8
0
 62
     0
370
    -2
100
AcDbLine
 10
596.1810964187907
 20
21.15696400000002
 30
0.0
 11
580.842508870175
 21
21.15696400000002
 31
0.0
  0
LINE
  5
EAD
330
A52
100
AcDbEntity
  8
0
 62
     0
370
    -2
100
AcDbLine
 10
582.092508870175
 20
-14.34303600000003
 30
0.0
 11
582.092508870175
 21
18.65696400000002
 31
0.0
  0
INSERT
  5
EAE
330
A52
100
AcDbEntity
  8
0
 62
     0
370
    -2
100
AcDbBlockReference
  2
_Open30
 10
582.092508870175
 20
-16.84303600000003
 30
0.0
 41
2.5
 42
2.5
 43
2.5
 50
270.0
  0
INSERT
  5
EAF
330
A52
100
AcDbEntity
  8
0
 62
     0
370
    -2
100
AcDbBlockReference
  2
_Open30
 10
582.092508870175
 20
21.15696400000002
 30
0.0
 41
2.5
 42
2.5
 43
2.5
 50
90.0
  0
MTEXT
  5
EB0
330
A52
100
AcDbEntity
  8
0
 62
     4
100
AcDbMText
 10
579.967508870175
 20
2.156964000000002
 30
0.0
 40
3.0
 41
0.0
 71
     5
 72
     1
  1
38
 11
0.0000000000000001
 21
1.0
 31
0.0
 73
     1
 44
1.0
1001
ACAD
1000
MTEXTBEGIN
1070
    73
1070
     1
1070
    44
1040
1.0
1070
    74
1070
     0
1000
MTEXTEND
  0
POINT
  5
EB1
330
A52
100
AcDbEntity
  8
Defpoints
 62
     0
100
AcDbPoint
 10
606.1310964187907
 20
-16.84303600000004
 30
0.0
  0
POINT
  5
EB2
330
A52
100
AcDbEntity
  8
Defpoints
 62
     0
100
AcDbPoint
 10
596.4310964187907
 20
21.15696400000002
 30
0.0
  0
POINT
  5
EB3
330
A52
100
AcDbEntity
  8
Defpoints
 62
     0
100
AcDbPoint
 10
582.092508870175
 20
21.15696400000002
 30
0.0
  0
ENDBLK
  5
A54
330
A52
100
AcDbEntity
  8
0
100
AcDbBlockEnd
  0
BLOCK
  5
A5F
330
A5E
100
AcDbEntity
  8
0
100
AcDbBlockBegin
  2
*D3
 70
     1
 10
0.0
 20
0.0
 30
0.0
  3
*D3
  1

  0
LINE
  5
EB4
330
A5E
100
AcDbEntity
  8
0
 62
     0
370
    -2
100
AcDbLine
 10
607.1887464187907
 20
-34.15557100000001
 30
0.0
 11
607.1887464187907
 21
-50.071878
 31
0.0
  0
LINE
  5
EB5
330
A5E
100
AcDbEntity
  8
0
 62
     0
370
    -2
100
AcDbLine
 10
633.1310964187909
 20
-34.093035
 30
0.0
 11
633.1310964187909
 21
-50.071878
 31
0.0
  0
LINE
  5
EB6
330
A5E
100
AcDbEntity
  8
0
 62
     0
370
    -2
100
AcDbLine
 10
609.6887464187907
 20
-48.821878
 30
0.0
 11
630.6310964187908
 21
-48.821878
 31
0.0
  0
INSERT
  5
EB7
330
A5E
100
AcDbEntity
  8
0
 62
     0
370
    -2
100
AcDbBlockReference
  2
_Open30
 10
607.1887464187907
 20
-48.821878
 30
0.0
 41
2.5
 42
2.5
 43
2.5
 50
180.0
  0
INSERT
  5
EB8
330
A5E
100
AcDbEntity
  8
0
 62
     0
370
    -2
100
AcDbBlockReference
  2
_Open30
 10
633.1310964187909
 20
-48.821878
 30
0.0
 41
2.5
 42
2.5
 43
2.5
  0
MTEXT
  5
EB9
330
A5E
100
AcDbEntity
  8
0
 62
     4
100
AcDbMText
 10
620.1599214187909
 20
-46.69687800000001
 30
0.0
 40
3.0
 41
0.0
 71
     5
 72
     1
  1
E26
 73
     1
 44
1.0
1001
ACAD
1000
MTEXTBEGIN
1070
    73
1070
     1
1070
    44
1040
1.0
1070
    74
1070
     0
1000
MTEXTEND
  0
POINT
  5
EBA
330
A5E
100
AcDbEntity
  8
Defpoints
 62
     0
100
AcDbPoint
 10
607.1887464187907
 20
-33.90557100000001
 30
0.0
  0
POINT
  5
EBB
330
A5E
100
AcDbEntity
  8
Defpoints
 62
     0
100
AcDbPoint
 10
633.1310964187909
 20
-33.843035
 30
0.0
  0
POINT
  5
EBC
330
A5E
100
AcDbEntity
  8
Defpoints
 62
     0
100
AcDbPoint
 10
633.1310964187909
 20
-48.821878
 30
0.0
  0
ENDBLK
  5
A60
330
A5E
100
AcDbEntity
  8
0
100
AcDbBlockEnd
  0
BLOCK
  5
A6B
330
A6A
100
AcDbEntity
  8
0
100
AcDbBlockBegin
  2
*D4
 70
     1
 10
0.0
 20
0.0
 30
0.0
  3
*D4
  1

  0
LINE
  5
1156
330
A6A
100
AcDbEntity
  8
0
  6
Continuous
 62
     0
370
    -2
100
AcDbLine
 10
646.3649030795425
 20
88.90696400000001
 30
0.0
 11
646.3649030795425
 21
123.7495344348733
 31
0.0
  0
LINE
  5
1157
330
A6A
100
AcDbEntity
  8
0
  6
Continuous
 62
     0
370
    -2
100
AcDbLine
 10
587.3649030795424
 20
88.90696400000001
 30
0.0
 11
587.3649030795424
 21
123.7495344348733
 31
0.0
  0
LINE
  5
1158
330
A6A
100
AcDbEntity
  8
0
  6
Continuous
 62
     0
370
    -2
100
AcDbLine
 10
643.8649030795423
 20
122.4995344348733
 30
0.0
 11
589.8649030795422
 21
122.4995344348733
 31
0.0
  0
INSERT
  5
1159
330
A6A
100
AcDbEntity
  8
0
  6
Continuous
 62
     0
370
    -2
100
AcDbBlockReference
  2
_Open30
 10
646.3649030795425
 20
122.4995344348733
 30
0.0
 41
2.5
 42
2.5
 43
2.5
  0
INSERT
  5
115A
330
A6A
100
AcDbEntity
  8
0
  6
Continuous
 62
     0
370
    -2
100
AcDbBlockReference
  2
_Open30
 10
587.3649030795424
 20
122.4995344348733
 30
0.0
 41
2.5
 42
2.5
 43
2.5
 50
180.0
  0
MTEXT
  5
115B
330
A6A
100
AcDbEntity
  8
0
  6
Continuous
 62
     4
100
AcDbMText
 10
616.6074618164675
 20
124.6245344348733
 30
0.0
 40
3.0
 41
0.0
 71
     5
 72
     1
  1
%%C59
 73
     1
 44
1.0
1001
ACAD
1000
MTEXTBEGIN
1070
    73
1070
     1
1070
    44
1040
1.0
1070
    74
1070
     0
1000
MTEXTEND
  0
POINT
  5
115C
330
A6A
100
AcDbEntity
  8
Defpoints
  6
Continuous
 62
     0
100
AcDbPoint
 10
646.3649030795425
 20
88.65696400000002
 30
0.0
  0
POINT
  5
115D
330
A6A
100
AcDbEntity
  8
Defpoints
  6
Continuous
 62
     0
100
AcDbPoint
 10
587.3649030795424
 20
88.65696400000002
 30
0.0
  0
POINT
  5
115E
330
A6A
100
AcDbEntity
  8
Defpoints
  6
Continuous
 62
     0
100
AcDbPoint
 10
587.3649030795424
 20
122.4995344348733
 30
0.0
  0
ENDBLK
  5
A6C
330
A6A
100
AcDbEntity
  8
0
100
AcDbBlockEnd
  0
BLOCK
  5
A77
330
A76
100
AcDbEntity
  8
0
100
AcDbBlockBegin
  2
*D5
 70
     1
 10
0.0
 20
0.0
 30
0.0
  3
*D5
  1

  0
LINE
  5
EC6
330
A76
100
AcDbEntity
  8
0
  6
Continuous
 62
     0
370
    -2
100
AcDbLine
 10
596.1810964187907
 20
21.15696400000002
 30
0.0
 11
573.9515232101893
 21
21.15696400000002
 31
0.0
  0
LINE
  5
EC7
330
A76
100
AcDbEntity
  8
0
  6
Continuous
 62
     0
370
    -2
100
AcDbLine
 10
619.8810964187909
 20
-41.84303599999998
 30
0.0
 11
573.9515232101893
 21
-41.84303599999997
 31
0.0
  0
LINE
  5
EC8
330
A76
100
AcDbEntity
  8
0
  6
Continuous
 62
     0
370
    -2
100
AcDbLine
 10
575.2015232101893
 20
18.65696400000002
 30
0.0
 11
575.2015232101893
 21
-39.34303599999997
 31
0.0
  0
INSERT
  5
EC9
330
A76
100
AcDbEntity
  8
0
  6
Continuous
 62
     0
370
    -2
100
AcDbBlockReference
  2
_Open30
 10
575.2015232101893
 20
21.15696400000002
 30
0.0
 41
2.5
 42
2.5
 43
2.5
 50
90.0
  0
INSERT
  5
ECA
330
A76
100
AcDbEntity
  8
0
  6
Continuous
 62
     0
370
    -2
100
AcDbBlockReference
  2
_Open30
 10
575.2015232101893
 20
-41.84303599999997
 30
0.0
 41
2.5
 42
2.5
 43
2.5
 50
270.0
  0
MTEXT
  5
ECB
330
A76
100
AcDbEntity
  8
0
  6
Continuous
 62
     4
100
AcDbMText
 10
573.0765232101893
 20
-10.34303599999997
 30
0.0
 40
3.0
 41
0.0
 71
     5
 72
     1
  1
63
 11
0.0000000000000001
 21
1.0
 31
0.0
 73
     1
 44
1.0
1001
ACAD
1000
MTEXTBEGIN
1070
    73
1070
     1
1070
    44
1040
1.0
1070
    74
1070
     0
1000
MTEXTEND
  0
POINT
  5
ECC
330
A76
100
AcDbEntity
  8
Defpoints
  6
Continuous
 62
     0
100
AcDbPoint
 10
596.4310964187907
 20
21.15696400000002
 30
0.0
  0
POINT
  5
ECD
330
A76
100
AcDbEntity
  8
Defpoints
  6
Continuous
 62
     0
100
AcDbPoint
 10
620.1310964187909
 20
-41.84303599999998
 30
0.0
  0
POINT
  5
ECE
330
A76
100
AcDbEntity
  8
Defpoints
  6
Continuous
 62
     0
100
AcDbPoint
 10
575.2015232101893
 20
-41.84303599999997
 30
0.0
  0
ENDBLK
  5
A78
330
A76
100
AcDbEntity
  8
0
100
AcDbBlockEnd
  0
BLOCK
  5
F77
330
F76
100
AcDbEntity
  8
0
100
AcDbBlockBegin
  2
*D6
 70
     1
 10
0.0
 20
0.0
 30
0.0
  3
*D6
  1

  0
LINE
  5
115F
330
F76
100
AcDbEntity
  8
0
 62
     0
370
    -2
100
AcDbLine
 10
616.6149030795423
 20
-41.84303599999998
 30
0.0
 11
564.1618423299237
 21
-41.84303599999997
 31
0.0
  0
LINE
  5
1160
330
F76
100
AcDbEntity
  8
0
 62
     0
370
    -2
100
AcDbLine
 10
616.6149030795422
 20
106.156964
 30
0.0
 11
564.1618423299237
 21
106.156964
 31
0.0
  0
LINE
  5
1161
330
F76
100
AcDbEntity
  8
0
 62
     0
370
    -2
100
AcDbLine
 10
565.4118423299236
 20
-39.34303599999997
 30
0.0
 11
565.4118423299236
 21
103.656964
 31
0.0
  0
INSERT
  5
1162
330
F76
100
AcDbEntity
  8
0
 62
     0
370
    -2
100
AcDbBlockReference
  2
_Open30
 10
565.4118423299236
 20
-41.84303599999997
 30
0.0
 41
2.5
 42
2.5
 43
2.5
 50
270.0
  0
INSERT
  5
1163
330
F76
100
AcDbEntity
  8
0
 62
     0
370
    -2
100
AcDbBlockReference
  2
_Open30
 10
565.4118423299236
 20
106.156964
 30
0.0
 41
2.5
 42
2.5
 43
2.5
 50
90.0
  0
MTEXT
  5
1164
330
F76
100
AcDbEntity
  8
0
 62
     4
100
AcDbMText
 10
563.2868423299237
 20
42.6569640000001
 30
0.0
 40
3.0
 41
0.0
 71
     5
 72
     1
  1
148
 11
0.0000000000000001
 21
1.0
 31
0.0
 73
     1
 44
1.0
1001
ACAD
1000
MTEXTBEGIN
1070
    73
1070
     1
1070
    44
1040
1.0
1070
    74
1070
     0
1000
MTEXTEND
  0
POINT
  5
1165
330
F76
100
AcDbEntity
  8
Defpoints
 62
     0
100
AcDbPoint
 10
616.8649030795425
 20
-41.84303599999998
 30
0.0
  0
POINT
  5
1166
330
F76
100
AcDbEntity
  8
Defpoints
 62
     0
100
AcDbPoint
 10
616.8649030795424
 20
106.156964
 30
0.0
  0
POINT
  5
1167
330
F76
100
AcDbEntity
  8
Defpoints
 62
     0
100
AcDbPoint
 10
565.4118423299236
 20
106.156964
 30
0.0
  0
ENDBLK
  5
F78
330
F76
100
AcDbEntity
  8
0
100
AcDbBlockEnd
  0
BLOCK
  5
F83
330
F82
100
AcDbEntity
  8
0
100
AcDbBlockBegin
  2
*D7
 70
     1
 10
0.0
 20
0.0
 30
0.0
  3
*D7
  1

  0
LINE
  5
1168
330
F82
100
AcDbEntity
  8
0
 62
     0
370
    -2
100
AcDbLine
 10
601.1149030795426
 20
-15.34303600000002
 30
0.0
 11
577.5763155309265
 21
-15.34303600000001
 31
0.0
  0
LINE
  5
1169
330
F82
100
AcDbEntity
  8
0
 62
     0
370
    -2
100
AcDbLine
 10
593.8149030795426
 20
20.156964
 30
0.0
 11
577.5763155309265
 21
20.15696400000001
 31
0.0
  0
LINE
  5
116A
330
F82
100
AcDbEntity
  8
0
 62
     0
370
    -2
100
AcDbLine
 10
578.8263155309265
 20
-12.84303600000001
 30
0.0
 11
578.8263155309265
 21
17.656964
 31
0.0
  0
INSERT
  5
116B
330
F82
100
AcDbEntity
  8
0
 62
     0
370
    -2
100
AcDbBlockReference
  2
_Open30
 10
578.8263155309265
 20
-15.34303600000001
 30
0.0
 41
2.5
 42
2.5
 43
2.5
 50
270.0
  0
INSERT
  5
116C
330
F82
100
AcDbEntity
  8
0
 62
     0
370
    -2
100
AcDbBlockReference
  2
_Open30
 10
578.8263155309265
 20
20.15696400000001
 30
0.0
 41
2.5
 42
2.5
 43
2.5
 50
90.0
  0
MTEXT
  5
116D
330
F82
100
AcDbEntity
  8
0
 62
     4
100
AcDbMText
 10
576.7013155309265
 20
2.156964000000002
 30
0.0
 40
3.0
 41
0.0
 71
     5
 72
     1
  1
35.5
 11
0.0000000000000001
 21
1.0
 31
0.0
 73
     1
 44
1.0
1001
ACAD
1000
MTEXTBEGIN
1070
    73
1070
     1
1070
    44
1040
1.0
1070
    74
1070
     0
1000
MTEXTEND
  0
POINT
  5
116E
330
F82
100
AcDbEntity
  8
Defpoints
 62
     0
100
AcDbPoint
 10
601.3649030795426
 20
-15.34303600000002
 30
0.0
  0
POINT
  5
116F
330
F82
100
AcDbEntity
  8
Defpoints
 62
     0
100
AcDbPoint
 10
594.0649030795426
 20
20.156964
 30
0.0
  0
POINT
  5
1170
330
F82
100
AcDbEntity
  8
Defpoints
 62
     0
100
AcDbPoint
 10
578.8263155309265
 20
20.15696400000001
 30
0.0
  0
ENDBLK
  5
F84
330
F82
100
AcDbEntity
  8
0
100
AcDbBlockEnd
  0
BLOCK
  5
F8F
330
F8E
100
AcDbEntity
  8
0
100
AcDbBlockBegin
  2
*D8
 70
     1
 10
0.0
 20
0.0
 30
0.0
  3
*D8
  1

  0
LINE
  5
1171
330
F8E
100
AcDbEntity
  8
0
 62
     0
370
    -2
100
AcDbLine
 10
603.9225530795422
 20
-34.15557100000001
 30
0.0
 11
603.9225530795422
 21
-50.071878
 31
0.0
  0
LINE
  5
1172
330
F8E
100
AcDbEntity
  8
0
 62
     0
370
    -2
100
AcDbLine
 10
629.8649030795425
 20
-34.093035
 30
0.0
 11
629.8649030795425
 21
-50.071878
 31
0.0
  0
LINE
  5
1173
330
F8E
100
AcDbEntity
  8
0
 62
     0
370
    -2
100
AcDbLine
 10
606.4225530795422
 20
-48.821878
 30
0.0
 11
627.3649030795425
 21
-48.821878
 31
0.0
  0
INSERT
  5
1174
330
F8E
100
AcDbEntity
  8
0
 62
     0
370
    -2
100
AcDbBlockReference
  2
_Open30
 10
603.9225530795422
 20
-48.821878
 30
0.0
 41
2.5
 42
2.5
 43
2.5
 50
180.0
  0
INSERT
  5
1175
330
F8E
100
AcDbEntity
  8
0
 62
     0
370
    -2
100
AcDbBlockReference
  2
_Open30
 10
629.8649030795425
 20
-48.821878
 30
0.0
 41
2.5
 42
2.5
 43
2.5
  0
MTEXT
  5
1176
330
F8E
100
AcDbEntity
  8
0
 62
     4
100
AcDbMText
 10
616.8937280795423
 20
-46.69687800000001
 30
0.0
 40
3.0
 41
0.0
 71
     5
 72
     1
  1
E26
 73
     1
 44
1.0
1001
ACAD
1000
MTEXTBEGIN
1070
    73
1070
     1
1070
    44
1040
1.0
1070
    74
1070
     0
1000
MTEXTEND
  0
POINT
  5
1177
330
F8E
100
AcDbEntity
  8
Defpoints
 62
     0
100
AcDbPoint
 10
603.9225530795422
 20
-33.90557100000001
 30
0.0
  0
POINT
  5
1178
330
F8E
100
AcDbEntity
  8
Defpoints
 62
     0
100
AcDbPoint
 10
629.8649030795425
 20
-33.843035
 30
0.0
  0
POINT
  5
1179
330
F8E
100
AcDbEntity
  8
Defpoints
 62
     0
100
AcDbPoint
 10
629.8649030795425
 20
-48.821878
 30
0.0
  0
ENDBLK
  5
F90
330
F8E
100
AcDbEntity
  8
0
100
AcDbBlockEnd
  0
BLOCK
  5
F9B
330
F9A
100
AcDbEntity
  8
0
100
AcDbBlockBegin
  2
*D9
 70
     1
 10
0.0
 20
0.0
 30
0.0
  3
*D9
  1

  0
LINE
  5
117A
330
F9A
100
AcDbEntity
  8
0
  6
Continuous
 62
     0
370
    -2
100
AcDbLine
 10
593.8149030795426
 20
20.156964
 30
0.0
 11
570.6853298709408
 21
20.15696400000001
 31
0.0
  0
LINE
  5
117B
330
F9A
100
AcDbEntity
  8
0
  6
Continuous
 62
     0
370
    -2
100
AcDbLine
 10
616.6149030795423
 20
-41.84303599999998
 30
0.0
 11
570.6853298709408
 21
-41.84303599999997
 31
0.0
  0
LINE
  5
117C
330
F9A
100
AcDbEntity
  8
0
  6
Continuous
 62
     0
370
    -2
100
AcDbLine
 10
571.9353298709409
 20
17.656964
 30
0.0
 11
571.9353298709409
 21
-39.34303599999997
 31
0.0
  0
INSERT
  5
117D
330
F9A
100
AcDbEntity
  8
0
  6
Continuous
 62
     0
370
    -2
100
AcDbBlockReference
  2
_Open30
 10
571.9353298709409
 20
20.15696400000001
 30
0.0
 41
2.5
 42
2.5
 43
2.5
 50
90.0
  0
INSERT
  5
117E
330
F9A
100
AcDbEntity
  8
0
  6
Continuous
 62
     0
370
    -2
100
AcDbBlockReference
  2
_Open30
 10
571.9353298709409
 20
-41.84303599999997
 30
0.0
 41
2.5
 42
2.5
 43
2.5
 50
270.0
  0
MTEXT
  5
117F
330
F9A
100
AcDbEntity
  8
0
  6
Continuous
 62
     4
100
AcDbMText
 10
569.8103298709408
 20
-10.34303599999997
 30
0.0
 40
3.0
 41
0.0
 71
     5
 72
     1
  1
62
 11
0.0000000000000001
 21
1.0
 31
0.0
 73
     1
 44
1.0
1001
ACAD
1000
MTEXTBEGIN
1070
    73
1070
     1
1070
    44
1040
1.0
1070
    74
1070
     0
1000
MTEXTEND
  0
POINT
  5
1180
330
F9A
100
AcDbEntity
  8
Defpoints
  6
Continuous
 62
     0
100
AcDbPoint
 10
594.0649030795426
 20
20.156964
 30
0.0
  0
POINT
  5
1181
330
F9A
100
AcDbEntity
  8
Defpoints
  6
Continuous
 62
     0
100
AcDbPoint
 10
616.8649030795425
 20
-41.84303599999998
 30
0.0
  0
POINT
  5
1182
330
F9A
100
AcDbEntity
  8
Defpoints
  6
Continuous
 62
     0
100
AcDbPoint
 10
571.9353298709409
 20
-41.84303599999997
 30
0.0
  0
ENDBLK
  5
F9C
330
F9A
100
AcDbEntity
  8
0
100
AcDbBlockEnd
  0
BLOCK
  5
11F5
330
11F4
100
AcDbEntity
  8
0
100
AcDbBlockBegin
  2
*D10
 70
     1
 10
0.0
 20
0.0
 30
0.0
  3
*D10
  1

  0
LINE
  5
144A
330
11F4
100
AcDbEntity
  8
0
  6
Continuous
 62
     0
370
    -2
100
AcDbLine
 10
591.1648705793115
 20
20.156964
 30
0.0
 11
568.2352973707098
 21
20.15696400000001
 31
0.0
  0
LINE
  5
144B
330
11F4
100
AcDbEntity
  8
0
  6
Continuous
 62
     0
370
    -2
100
AcDbLine
 10
614.1648705793114
 20
-41.84303599999998
 30
0.0
 11
568.2352973707098
 21
-41.84303599999997
 31
0.0
  0
LINE
  5
144C
330
11F4
100
AcDbEntity
  8
0
  6
Continuous
 62
     0
370
    -2
100
AcDbLine
 10
569.4852973707098
 20
17.656964
 30
0.0
 11
569.4852973707098
 21
-39.34303599999997
 31
0.0
  0
INSERT
  5
144D
330
11F4
100
AcDbEntity
  8
0
  6
Continuous
 62
     0
370
    -2
100
AcDbBlockReference
  2
_Open30
 10
569.4852973707098
 20
20.15696400000001
 30
0.0
 41
2.5
 42
2.5
 43
2.5
 50
90.0
  0
INSERT
  5
144E
330
11F4
100
AcDbEntity
  8
0
  6
Continuous
 62
     0
370
    -2
100
AcDbBlockReference
  2
_Open30
 10
569.4852973707098
 20
-41.84303599999997
 30
0.0
 41
2.5
 42
2.5
 43
2.5
 50
270.0
  0
MTEXT
  5
144F
330
11F4
100
AcDbEntity
  8
0
  6
Continuous
 62
     4
100
AcDbMText
 10
567.3602973707098
 20
-10.34303599999997
 30
0.0
 40
3.0
 41
0.0
 71
     5
 72
     1
  1
62
 11
0.0000000000000001
 21
1.0
 31
0.0
 73
     1
 44
1.0
1001
ACAD
1000
MTEXTBEGIN
1070
    73
1070
     1
1070
    44
1040
1.0
1070
    74
1070
     0
1000
MTEXTEND
  0
POINT
  5
1450
330
11F4
100
AcDbEntity
  8
Defpoints
  6
Continuous
 62
     0
100
AcDbPoint
 10
591.4148705793116
 20
20.156964
 30
0.0
  0
POINT
  5
1451
330
11F4
100
AcDbEntity
  8
Defpoints
  6
Continuous
 62
     0
100
AcDbPoint
 10
614.4148705793115
 20
-41.84303599999998
 30
0.0
  0
POINT
  5
1452
330
11F4
100
AcDbEntity
  8
Defpoints
  6
Continuous
 62
     0
100
AcDbPoint
 10
569.4852973707098
 20
-41.84303599999997
 30
0.0
  0
ENDBLK
  5
11F6
330
11F4
100
AcDbEntity
  8
0
100
AcDbBlockEnd
  0
BLOCK
  5
1201
330
1200
100
AcDbEntity
  8
0
100
AcDbBlockBegin
  2
*D11
 70
     1
 10
0.0
 20
0.0
 30
0.0
  3
*D11
  1

  0
LINE
  5
1426
330
1200
100
AcDbEntity
  8
0
  6
Continuous
 62
     0
370
    -2
100
AcDbLine
 10
643.9148705793114
 20
88.90696400000001
 30
0.0
 11
643.9148705793114
 21
123.7495344348733
 31
0.0
  0
LINE
  5
1427
330
1200
100
AcDbEntity
  8
0
  6
Continuous
 62
     0
370
    -2
100
AcDbLine
 10
584.9148705793115
 20
88.90696400000001
 30
0.0
 11
584.9148705793115
 21
123.7495344348733
 31
0.0
  0
LINE
  5
1428
330
1200
100
AcDbEntity
  8
0
  6
Continuous
 62
     0
370
    -2
100
AcDbLine
 10
641.4148705793114
 20
122.4995344348733
 30
0.0
 11
587.4148705793114
 21
122.4995344348733
 31
0.0
  0
INSERT
  5
1429
330
1200
100
AcDbEntity
  8
0
  6
Continuous
 62
     0
370
    -2
100
AcDbBlockReference
  2
_Open30
 10
643.9148705793114
 20
122.4995344348733
 30
0.0
 41
2.5
 42
2.5
 43
2.5
  0
INSERT
  5
142A
330
1200
100
AcDbEntity
  8
0
  6
Continuous
 62
     0
370
    -2
100
AcDbBlockReference
  2
_Open30
 10
584.9148705793115
 20
122.4995344348733
 30
0.0
 41
2.5
 42
2.5
 43
2.5
 50
180.0
  0
MTEXT
  5
142B
330
1200
100
AcDbEntity
  8
0
  6
Continuous
 62
     4
100
AcDbMText
 10
614.1574293162366
 20
124.6245344348733
 30
0.0
 40
3.0
 41
0.0
 71
     5
 72
     1
  1
%%C59
 73
     1
 44
1.0
1001
ACAD
1000
MTEXTBEGIN
1070
    73
1070
     1
1070
    44
1040
1.0
1070
    74
1070
     0
1000
MTEXTEND
  0
POINT
  5
142C
330
1200
100
AcDbEntity
  8
Defpoints
  6
Continuous
 62
     0
100
AcDbPoint
 10
643.9148705793114
 20
88.65696400000002
 30
0.0
  0
POINT
  5
142D
330
1200
100
AcDbEntity
  8
Defpoints
  6
Continuous
 62
     0
100
AcDbPoint
 10
584.9148705793115
 20
88.65696400000002
 30
0.0
  0
POINT
  5
142E
330
1200
100
AcDbEntity
  8
Defpoints
  6
Continuous
 62
     0
100
AcDbPoint
 10
584.9148705793115
 20
122.4995344348733
 30
0.0
  0
ENDBLK
  5
1202
330
1200
100
AcDbEntity
  8
0
100
AcDbBlockEnd
  0
BLOCK
  5
120D
330
120C
100
AcDbEntity
  8
0
100
AcDbBlockBegin
  2
*D12
 70
     1
 10
0.0
 20
0.0
 30
0.0
  3
*D12
  1

  0
LINE
  5
142F
330
120C
100
AcDbEntity
  8
0
 62
     0
370
    -2
100
AcDbLine
 10
614.1648705793114
 20
-41.84303599999998
 30
0.0
 11
561.7118098296928
 21
-41.84303599999997
 31
0.0
  0
LINE
  5
1430
330
120C
100
AcDbEntity
  8
0
 62
     0
370
    -2
100
AcDbLine
 10
614.1648705793114
 20
107.156964
 30
0.0
 11
561.7118098296928
 21
107.156964
 31
0.0
  0
LINE
  5
1431
330
120C
100
AcDbEntity
  8
0
 62
     0
370
    -2
100
AcDbLine
 10
562.9618098296928
 20
-39.34303599999997
 30
0.0
 11
562.9618098296928
 21
104.656964
 31
0.0
  0
INSERT
  5
1432
330
120C
100
AcDbEntity
  8
0
 62
     0
370
    -2
100
AcDbBlockReference
  2
_Open30
 10
562.9618098296928
 20
-41.84303599999997
 30
0.0
 41
2.5
 42
2.5
 43
2.5
 50
270.0
  0
INSERT
  5
1433
330
120C
100
AcDbEntity
  8
0
 62
     0
370
    -2
100
AcDbBlockReference
  2
_Open30
 10
562.9618098296928
 20
107.156964
 30
0.0
 41
2.5
 42
2.5
 43
2.5
 50
90.0
  0
MTEXT
  5
1434
330
120C
100
AcDbEntity
  8
0
 62
     4
100
AcDbMText
 10
560.8368098296928
 20
42.6569640000001
 30
0.0
 40
3.0
 41
0.0
 71
     5
 72
     1
  1
149
 11
0.0000000000000001
 21
1.0
 31
0.0
 73
     1
 44
1.0
1001
ACAD
1000
MTEXTBEGIN
1070
    73
1070
     1
1070
    44
1040
1.0
1070
    74
1070
     0
1000
MTEXTEND
  0
POINT
  5
1435
330
120C
100
AcDbEntity
  8
Defpoints
 62
     0
100
AcDbPoint
 10
614.4148705793115
 20
-41.84303599999998
 30
0.0
  0
POINT
  5
1436
330
120C
100
AcDbEntity
  8
Defpoints
 62
     0
100
AcDbPoint
 10
614.4148705793115
 20
107.156964
 30
0.0
  0
POINT
  5
1437
330
120C
100
AcDbEntity
  8
Defpoints
 62
     0
100
AcDbPoint
 10
562.9618098296928
 20
107.156964
 30
0.0
  0
ENDBLK
  5
120E
330
120C
100
AcDbEntity
  8
0
100
AcDbBlockEnd
  0
BLOCK
  5
1219
330
1218
100
AcDbEntity
  8
0
100
AcDbBlockBegin
  2
*D13
 70
     1
 10
0.0
 20
0.0
 30
0.0
  3
*D13
  1

  0
LINE
  5
1438
330
1218
100
AcDbEntity
  8
0
 62
     0
370
    -2
100
AcDbLine
 10
598.6648705793117
 20
-15.34303600000002
 30
0.0
 11
575.1262830306956
 21
-15.34303600000001
 31
0.0
  0
LINE
  5
1439
330
1218
100
AcDbEntity
  8
0
 62
     0
370
    -2
100
AcDbLine
 10
591.1648705793115
 20
20.156964
 30
0.0
 11
575.1262830306956
 21
20.15696400000001
 31
0.0
  0
LINE
  5
143A
330
1218
100
AcDbEntity
  8
0
 62
     0
370
    -2
100
AcDbLine
 10
576.3762830306956
 20
-12.84303600000001
 30
0.0
 11
576.3762830306956
 21
17.656964
 31
0.0
  0
INSERT
  5
143B
330
1218
100
AcDbEntity
  8
0
 62
     0
370
    -2
100
AcDbBlockReference
  2
_Open30
 10
576.3762830306956
 20
-15.34303600000001
 30
0.0
 41
2.5
 42
2.5
 43
2.5
 50
270.0
  0
INSERT
  5
143C
330
1218
100
AcDbEntity
  8
0
 62
     0
370
    -2
100
AcDbBlockReference
  2
_Open30
 10
576.3762830306956
 20
20.15696400000001
 30
0.0
 41
2.5
 42
2.5
 43
2.5
 50
90.0
  0
MTEXT
  5
143D
330
1218
100
AcDbEntity
  8
0
 62
     4
100
AcDbMText
 10
574.2512830306956
 20
2.156964000000002
 30
0.0
 40
3.0
 41
0.0
 71
     5
 72
     1
  1
35.5
 11
0.0000000000000001
 21
1.0
 31
0.0
 73
     1
 44
1.0
1001
ACAD
1000
MTEXTBEGIN
1070
    73
1070
     1
1070
    44
1040
1.0
1070
    74
1070
     0
1000
MTEXTEND
  0
POINT
  5
143E
330
1218
100
AcDbEntity
  8
Defpoints
 62
     0
100
AcDbPoint
 10
598.9148705793117
 20
-15.34303600000002
 30
0.0
  0
POINT
  5
143F
330
1218
100
AcDbEntity
  8
Defpoints
 62
     0
100
AcDbPoint
 10
591.4148705793116
 20
20.156964
 30
0.0
  0
POINT
  5
1440
330
1218
100
AcDbEntity
  8
Defpoints
 62
     0
100
AcDbPoint
 10
576.3762830306956
 20
20.15696400000001
 30
0.0
  0
ENDBLK
  5
121A
330
1218
100
AcDbEntity
  8
0
100
AcDbBlockEnd
  0
BLOCK
  5
1225
330
1224
100
AcDbEntity
  8
0
100
AcDbBlockBegin
  2
*D14
 70
     1
 10
0.0
 20
0.0
 30
0.0
  3
*D14
  1

  0
LINE
  5
1441
330
1224
100
AcDbEntity
  8
0
 62
     0
370
    -2
100
AcDbLine
 10
601.4725205793112
 20
-34.15557100000001
 30
0.0
 11
601.4725205793112
 21
-50.071878
 31
0.0
  0
LINE
  5
1442
330
1224
100
AcDbEntity
  8
0
 62
     0
370
    -2
100
AcDbLine
 10
627.4148705793114
 20
-34.093035
 30
0.0
 11
627.4148705793114
 21
-50.071878
 31
0.0
  0
LINE
  5
1443
330
1224
100
AcDbEntity
  8
0
 62
     0
370
    -2
100
AcDbLine
 10
603.9725205793112
 20
-48.821878
 30
0.0
 11
624.9148705793114
 21
-48.821878
 31
0.0
  0
INSERT
  5
1444
330
1224
100
AcDbEntity
  8
0
 62
     0
370
    -2
100
AcDbBlockReference
  2
_Open30
 10
601.4725205793112
 20
-48.821878
 30
0.0
 41
2.5
 42
2.5
 43
2.5
 50
180.0
  0
INSERT
  5
1445
330
1224
100
AcDbEntity
  8
0
 62
     0
370
    -2
100
AcDbBlockReference
  2
_Open30
 10
627.4148705793114
 20
-48.821878
 30
0.0
 41
2.5
 42
2.5
 43
2.5
  0
MTEXT
  5
1446
330
1224
100
AcDbEntity
  8
0
 62
     4
100
AcDbMText
 10
614.4436955793113
 20
-46.69687800000001
 30
0.0
 40
3.0
 41
0.0
 71
     5
 72
     1
  1
E26
 73
     1
 44
1.0
1001
ACAD
1000
MTEXTBEGIN
1070
    73
1070
     1
1070
    44
1040
1.0
1070
    74
1070
     0
1000
MTEXTEND
  0
POINT
  5
1447
330
1224
100
AcDbEntity
  8
Defpoints
 62
     0
100
AcDbPoint
 10
601.4725205793112
 20
-33.90557100000001
 30
0.0
  0
POINT
  5
1448
330
1224
100
AcDbEntity
  8
Defpoints
 62
     0
100
AcDbPoint
 10
627.4148705793114
 20
-33.843035
 30
0.0
  0
POINT
  5
1449
330
1224
100
AcDbEntity
  8
Defpoints
 62
     0
100
AcDbPoint
 10
627.4148705793114
 20
-48.821878
 30
0.0
  0
ENDBLK
  5
1226
330
1224
100
AcDbEntity
  8
0
100
AcDbBlockEnd
  0
BLOCK
  5
128B
330
128A
100
AcDbEntity
  8
0
100
AcDbBlockBegin
  2
*D15
 70
     1
 10
0.0
 20
0.0
 30
0.0
  3
*D15
  1

  0
LINE
  5
1453
330
128A
100
AcDbEntity
  8
0
  6
Continuous
 62
     0
370
    -2
100
AcDbLine
 10
638.4148705793116
 20
13.906964
 30
0.0
 11
638.4148705793116
 21
-55.28871264971574
 31
0.0
  0
LINE
  5
1454
330
128A
100
AcDbEntity
  8
0
  6
Continuous
 62
     0
370
    -2
100
AcDbLine
 10
590.4148705793114
 20
13.906964
 30
0.0
 11
590.4148705793114
 21
-55.28871264971574
 31
0.0
  0
LINE
  5
1455
330
128A
100
AcDbEntity
  8
0
  6
Continuous
 62
     0
370
    -2
100
AcDbLine
 10
635.9148705793115
 20
-54.03871264971575
 30
0.0
 11
592.9148705793115
 21
-54.03871264971575
 31
0.0
  0
INSERT
  5
1456
330
128A
100
AcDbEntity
  8
0
  6
Continuous
 62
     0
370
    -2
100
AcDbBlockReference
  2
_Open30
 10
638.4148705793116
 20
-54.03871264971575
 30
0.0
 41
2.5
 42
2.5
 43
2.5
  0
INSERT
  5
1457
330
128A
100
AcDbEntity
  8
0
  6
Continuous
 62
     0
370
    -2
100
AcDbBlockReference
  2
_Open30
 10
590.4148705793114
 20
-54.03871264971575
 30
0.0
 41
2.5
 42
2.5
 43
2.5
 50
180.0
  0
MTEXT
  5
1458
330
128A
100
AcDbEntity
  8
0
  6
Continuous
 62
     4
100
AcDbMText
 10
613.0685682060628
 20
-51.91371264971575
 30
0.0
 40
3.0
 41
0.0
 71
     5
 72
     1
  1
%%C48
 73
     1
 44
1.0
1001
ACAD
1000
MTEXTBEGIN
1070
    73
1070
     1
1070
    44
1040
1.0
1070
    74
1070
     0
1000
MTEXTEND
  0
POINT
  5
1459
330
128A
100
AcDbEntity
  8
Defpoints
  6
Continuous
 62
     0
100
AcDbPoint
 10
638.4148705793116
 20
14.156964
 30
0.0
  0
POINT
  5
145A
330
128A
100
AcDbEntity
  8
Defpoints
  6
Continuous
 62
     0
100
AcDbPoint
 10
590.4148705793114
 20
14.156964
 30
0.0
  0
POINT
  5
145B
330
128A
100
AcDbEntity
  8
Defpoints
  6
Continuous
 62
     0
100
AcDbPoint
 10
590.4148705793114
 20
-54.03871264971575
 30
0.0
  0
ENDBLK
  5
128C
330
128A
100
AcDbEntity
  8
0
100
AcDbBlockEnd
  0
ENDSEC
  0
SECTION
  2
ENTITIES
  0
LINE
  5
7B1
330
6B
100
AcDbEntity
  8
0
 62
     3
100
AcDbLine
 10
651.191922539129
 20
165.1498509999999
 30
0.0
 11
734.7919225391287
 21
165.1498509999999
 31
0.0
  0
TEXT
  5
7B2
330
6B
100
AcDbEntity
  8
0
 62
     3
100
AcDbText
 10
724.066922539129
 20
161.0048509999999
 30
0.0
 40
3.2
  1
担
  7
高3.2
100
AcDbText
  0
TEXT
  5
7B3
330
6B
100
AcDbEntity
  8
0
 62
     3
100
AcDbText
 10
730.9544225391289
 20
161.0048509999999
 30
0.0
 40
3.2
  1
当
  7
高3.2
100
AcDbText
  0
TEXT
  5
7B4
330
6B
100
AcDbEntity
  8
0
 62
     3
100
AcDbText
 10
683.8711465391289
 20
160.987689
 30
0.0
 40
3.2
  1
変更・追記内容
  7
高3.2
100
AcDbText
  0
LINE
  5
7B5
330
6B
100
AcDbEntity
  8
0
 62
     3
100
AcDbLine
 10
651.191922539129
 20
169.65524
 30
0.0
 11
651.1919225391287
 21
140.3998509999995
 31
0.0
  0
TEXT
  5
7B6
330
6B
100
AcDbEntity
  8
0
 62
     3
100
AcDbText
 10
655.6502874401243
 20
156.3163546495817
 30
0.0
 40
2.0
  1
1
  7
高2
100
AcDbText
  0
TEXT
  5
7B7
330
6B
100
AcDbEntity
  8
0
 62
     3
100
AcDbText
 10
655.3541585284269
 20
151.1354188989684
 30
0.0
 40
2.0
  1
2
  7
高2
100
AcDbText
  0
TEXT
  5
7B8
330
6B
100
AcDbEntity
  8
0
 62
     3
100
AcDbText
 10
664.1508715391287
 20
160.8519459304041
 30
0.0
 40
3.2
  1
日
  7
高3.2
100
AcDbText
  0
TEXT
  5
7B9
330
6B
100
AcDbEntity
  8
0
 62
     3
100
AcDbText
 10
673.027745539129
 20
160.8519459304041
 30
0.0
 40
3.2
  1
付
  7
高3.2
100
AcDbText
  0
TEXT
  5
7BA
330
6B
100
AcDbEntity
  8
0
 62
     3
100
AcDbText
 10
663.9767135391289
 20
165.7998509999998
 30
0.0
 40
3.2
  1
図
  7
高3.2
100
AcDbText
  0
TEXT
  5
7BB
330
6B
100
AcDbEntity
  8
0
 62
     3
100
AcDbText
 10
682.632608539129
 20
165.7998509999998
 30
0.0
 40
3.2
  1
面
  7
高3.2
100
AcDbText
  0
TEXT
  5
7BC
330
6B
100
AcDbEntity
  8
0
 62
     3
100
AcDbText
 10
701.288503539129
 20
165.7998509999998
 30
0.0
 40
3.2
  1
略
  7
高3.2
100
AcDbText
  0
TEXT
  5
7BD
330
6B
100
AcDbEntity
  8
0
 62
     3
100
AcDbText
 10
719.9443985391288
 20
165.7998509999998
 30
0.0
 40
3.2
  1
歴
  7
高3.2
100
AcDbText
  0
TEXT
  5
7BE
330
6B
100
AcDbEntity
  8
0
 62
     3
100
AcDbText
 10
651.7942865391287
 20
160.9248509999998
 30
0.0
 40
3.2
  1
記
  7
高3.2
100
AcDbText
  0
TEXT
  5
7BF
330
6B
100
AcDbEntity
  8
0
 62
     3
100
AcDbText
 10
658.0471945391287
 20
160.9248509999998
 30
0.0
 40
3.2
  1
号
  7
高3.2
100
AcDbText
  0
LINE
  5
7C0
330
6B
100
AcDbEntity
  8
0
 62
     7
100
AcDbLine
 10
734.7919225391287
 20
150.299851
 30
0.0
 11
651.191922539129
 21
150.2998509999998
 31
0.0
  0
LINE
  5
7C1
330
6B
100
AcDbEntity
  8
0
 62
     2
100
AcDbLine
 10
621.8762745391289
 20
171.4426839999999
 30
0.0
 11
622.312022539129
 21
171.215216
 31
0.0
  0
LINE
  5
7C2
330
6B
100
AcDbEntity
  8
0
 62
     2
100
AcDbLine
 10
621.8762745391289
 20
167.7120539999999
 30
0.0
 11
622.312022539129
 21
167.939522
 31
0.0
  0
LINE
  5
7C3
330
6B
100
AcDbEntity
  8
0
 62
     2
100
AcDbLine
 10
622.312022539129
 20
171.215216
 30
0.0
 11
622.312022539129
 21
167.939522
 31
0.0
  0
LINE
  5
7C4
330
6B
100
AcDbEntity
  8
0
 62
     2
100
AcDbLine
 10
623.4155405391287
 20
167.7120539999999
 30
0.0
 11
622.979792539129
 21
167.939522
 31
0.0
  0
LINE
  5
7C5
330
6B
100
AcDbEntity
  8
0
 62
     2
100
AcDbLine
 10
622.979792539129
 20
169.936381
 30
0.0
 11
622.979792539129
 21
167.939522
 31
0.0
  0
LINE
  5
7C6
330
6B
100
AcDbEntity
  8
0
 62
     2
100
AcDbLine
 10
625.957402539129
 20
171.4426839999999
 30
0.0
 11
625.5216555391289
 21
171.215216
 31
0.0
  0
LINE
  5
7C7
330
6B
100
AcDbEntity
  8
0
 62
     2
100
AcDbLine
 10
624.418137539129
 20
171.4426839999999
 30
0.0
 11
624.8538855391289
 21
171.215216
 31
0.0
  0
LINE
  5
7C8
330
6B
100
AcDbEntity
  8
0
 62
     2
100
AcDbLine
 10
624.8538855391289
 20
171.215216
 30
0.0
 11
624.8538855391289
 21
169.772879
 31
0.0
  0
LINE
  5
7C9
330
6B
100
AcDbEntity
  8
0
 62
     2
100
AcDbLine
 10
625.5216555391289
 20
171.215216
 30
0.0
 11
625.5216555391289
 21
167.500493
 31
0.0
  0
LINE
  5
7CA
330
6B
100
AcDbEntity
  8
0
 62
     2
100
AcDbLine
 10
626.1727005391287
 20
171.442682
 30
0.0
 11
626.608446539129
 21
171.21521
 31
0.0
  0
LINE
  5
7CB
330
6B
100
AcDbEntity
  8
0
 62
     2
100
AcDbLine
 10
626.1726225391287
 20
167.712104
 30
0.0
 11
626.608378539129
 21
167.939557
 31
0.0
  0
LINE
  5
7CC
330
6B
100
AcDbEntity
  8
0
 62
     2
100
AcDbLine
 10
626.608446539129
 20
171.21521
 30
0.0
 11
626.608446539129
 21
167.939557
 31
0.0
  0
LINE
  5
7CD
330
6B
100
AcDbEntity
  8
0
 62
     2
100
AcDbLine
 10
628.1022365391287
 20
171.442658
 30
0.0
 11
627.6664855391287
 21
171.215196
 31
0.0
  0
LINE
  5
7CE
330
6B
100
AcDbEntity
  8
0
 62
     2
100
AcDbLine
 10
627.6664855391287
 20
171.215196
 30
0.0
 11
627.6664855391287
 21
167.9395419999999
 31
0.0
  0
LINE
  5
7CF
330
6B
100
AcDbEntity
  8
0
 62
     2
100
AcDbLine
 10
628.1022365391287
 20
167.71208
 30
0.0
 11
627.6664855391287
 21
167.9395419999999
 31
0.0
  0
LINE
  5
7D0
330
6B
100
AcDbEntity
  8
0
 62
     2
100
AcDbLine
 10
631.7924895391286
 20
171.442617
 30
0.0
 11
632.2282375391287
 21
171.215147
 31
0.0
  0
LINE
  5
7D1
330
6B
100
AcDbEntity
  8
0
 62
     2
100
AcDbLine
 10
632.2282375391287
 20
171.215147
 30
0.0
 11
632.2281795391289
 21
167.9394929999999
 31
0.0
  0
LINE
  5
7D2
330
6B
100
AcDbEntity
  8
0
 62
     2
100
AcDbLine
 10
631.7924245391289
 20
167.7120389999999
 30
0.0
 11
632.2281795391289
 21
167.9394929999999
 31
0.0
  0
LINE
  5
7D3
330
6B
100
AcDbEntity
  8
0
 62
     2
100
AcDbLine
 10
633.7447505391287
 20
171.442617
 30
0.0
 11
633.309003539129
 21
171.215147
 31
0.0
  0
LINE
  5
7D4
330
6B
100
AcDbEntity
  8
0
 62
     2
100
AcDbLine
 10
633.744816539129
 20
167.7120389999999
 30
0.0
 11
633.3090605391287
 21
167.9394929999999
 31
0.0
  0
LINE
  5
7D5
330
6B
100
AcDbEntity
  8
0
 62
     2
100
AcDbLine
 10
633.9484785391289
 20
171.442617
 30
0.0
 11
634.3842255391287
 21
171.215147
 31
0.0
  0
LINE
  5
7D6
330
6B
100
AcDbEntity
  8
0
 62
     2
100
AcDbLine
 10
633.9484135391288
 20
167.7120389999999
 30
0.0
 11
634.3841685391287
 21
167.9394929999999
 31
0.0
  0
LINE
  5
7D7
330
6B
100
AcDbEntity
  8
0
 62
     2
100
AcDbLine
 10
635.9007395391287
 20
171.442617
 30
0.0
 11
635.464992539129
 21
171.215147
 31
0.0
  0
LINE
  5
7D8
330
6B
100
AcDbEntity
  8
0
 62
     2
100
AcDbLine
 10
635.464992539129
 20
171.215147
 30
0.0
 11
635.465049539129
 21
167.9394929999999
 31
0.0
  0
LINE
  5
7D9
330
6B
100
AcDbEntity
  8
0
 62
     2
100
AcDbLine
 10
635.900804539129
 20
167.7120389999999
 30
0.0
 11
635.465049539129
 21
167.9394929999999
 31
0.0
  0
LINE
  5
7DA
330
6B
100
AcDbEntity
  8
0
 62
     2
100
AcDbLine
 10
634.3842015391287
 20
169.788014
 30
0.0
 11
633.309028539129
 21
169.788014
 31
0.0
  0
LINE
  5
7DB
330
6B
100
AcDbEntity
  8
0
 62
     2
100
AcDbLine
 10
634.384193539129
 20
169.366724
 30
0.0
 11
633.3090365391289
 21
169.366724
 31
0.0
  0
LINE
  5
7DC
330
6B
100
AcDbEntity
  8
0
 62
     2
100
AcDbLine
 10
634.3842255391287
 20
171.215147
 30
0.0
 11
634.3842015391287
 21
169.788014
 31
0.0
  0
LINE
  5
7DD
330
6B
100
AcDbEntity
  8
0
 62
     2
100
AcDbLine
 10
634.384193539129
 20
169.366724
 30
0.0
 11
634.3841685391287
 21
167.9394929999999
 31
0.0
  0
LINE
  5
7DE
330
6B
100
AcDbEntity
  8
0
 62
     2
100
AcDbLine
 10
633.309003539129
 20
171.215147
 30
0.0
 11
633.309028539129
 21
169.788014
 31
0.0
  0
LINE
  5
7DF
330
6B
100
AcDbEntity
  8
0
 62
     2
100
AcDbLine
 10
633.3090365391289
 20
169.366724
 30
0.0
 11
633.3090605391287
 21
167.9394929999999
 31
0.0
  0
LINE
  5
7E0
330
6B
100
AcDbEntity
  8
0
 62
     2
100
AcDbLine
 10
636.1076985391287
 20
171.442617
 30
0.0
 11
636.543446539129
 21
171.215147
 31
0.0
  0
LINE
  5
7E1
330
6B
100
AcDbEntity
  8
0
 62
     2
100
AcDbLine
 10
636.543446539129
 20
171.215147
 30
0.0
 11
636.5433885391287
 21
167.9394929999999
 31
0.0
  0
LINE
  5
7E2
330
6B
100
AcDbEntity
  8
0
 62
     2
100
AcDbLine
 10
636.1076335391287
 20
167.7120389999999
 30
0.0
 11
636.5433885391287
 21
167.9394929999999
 31
0.0
  0
LINE
  5
7E3
330
6B
100
AcDbEntity
  8
0
 62
     2
100
AcDbLine
 10
638.0372095391289
 20
171.442617
 30
0.0
 11
637.601462539129
 21
171.215147
 31
0.0
  0
LINE
  5
7E4
330
6B
100
AcDbEntity
  8
0
 62
     2
100
AcDbLine
 10
637.601462539129
 20
171.215147
 30
0.0
 11
637.6015195391287
 21
167.9394929999999
 31
0.0
  0
LINE
  5
7E5
330
6B
100
AcDbEntity
  8
0
 62
     2
100
AcDbLine
 10
638.0372745391289
 20
167.7120389999999
 30
0.0
 11
637.6015195391287
 21
167.9394929999999
 31
0.0
  0
LINE
  5
7E6
330
6B
100
AcDbEntity
  8
0
 62
     2
100
AcDbLine
 10
638.251568539129
 20
171.442617
 30
0.0
 11
638.687315539129
 21
171.215147
 31
0.0
  0
LINE
  5
7E7
330
6B
100
AcDbEntity
  8
0
 62
     2
100
AcDbLine
 10
638.687315539129
 20
171.215147
 30
0.0
 11
638.6872585391287
 21
167.9394929999999
 31
0.0
  0
LINE
  5
7E8
330
6B
100
AcDbEntity
  8
0
 62
     2
100
AcDbLine
 10
638.2515035391287
 20
167.7120389999999
 30
0.0
 11
638.6872585391287
 21
167.9394929999999
 31
0.0
  0
ARC
  5
7E9
330
6B
100
AcDbEntity
  8
0
 62
     2
100
AcDbCircle
 10
630.4005785391287
 20
169.586759
 30
0.0
 40
2.086285999999998
100
AcDbArc
 50
97.70152399999965
 51
270.0
  0
ARC
  5
7EA
330
6B
100
AcDbEntity
  8
0
 62
     2
100
AcDbCircle
 10
643.2811795391288
 20
169.5658019999999
 30
0.0
 40
2.108943
100
AcDbArc
 50
0.3142500000000204
 51
69.00558199999814
  0
ARC
  5
7EB
330
6B
100
AcDbEntity
  8
0
 62
     2
100
AcDbCircle
 10
643.741854539129
 20
169.5658019999999
 30
0.0
 40
2.108943
100
AcDbArc
 50
110.9944180000018
 51
148.1166110000016
  0
ARC
  5
7EC
330
6B
100
AcDbEntity
  8
0
 62
     2
100
AcDbCircle
 10
643.2811795391288
 20
169.588936
 30
0.0
 40
2.108943
100
AcDbArc
 50
290.9944180000019
 51
359.6857499999999
  0
ARC
  5
7ED
330
6B
100
AcDbEntity
  8
0
 62
     2
100
AcDbCircle
 10
643.741854539129
 20
169.588936
 30
0.0
 40
2.108943
100
AcDbArc
 50
211.8833889999984
 51
249.0055819999981
  0
ARC
  5
7EE
330
6B
100
AcDbEntity
  8
0
 62
     2
100
AcDbCircle
 10
643.511517539129
 20
170.440174
 30
0.0
 40
1.214070999999999
100
AcDbArc
 50
64.3651719999999
 51
115.6348280000001
  0
ARC
  5
7EF
330
6B
100
AcDbEntity
  8
0
 62
     2
100
AcDbCircle
 10
643.511517539129
 20
168.714563
 30
0.0
 40
1.214070999999999
100
AcDbArc
 50
244.3651719999999
 51
295.634828
  0
ARC
  5
7F0
330
6B
100
AcDbEntity
  8
0
 62
     2
100
AcDbCircle
 10
643.511517539129
 20
170.463236
 30
0.0
 40
0.5958560000000001
100
AcDbArc
 50
19.48660599999857
 51
160.5133940000014
  0
ARC
  5
7F1
330
6B
100
AcDbEntity
  8
0
 62
     2
100
AcDbCircle
 10
643.511517539129
 20
168.691502
 30
0.0
 40
0.5958560000000001
100
AcDbArc
 50
199.4866059999985
 51
340.5133940000014
  0
ARC
  5
7F2
330
6B
100
AcDbEntity
  8
0
 62
     3
100
AcDbCircle
 10
638.769044539129
 20
147.349309
 30
0.0
 40
26.04
100
AcDbArc
 50
69.50571500000255
 51
81.68998800000144
  0
ARC
  5
7F3
330
6B
100
AcDbEntity
  8
0
 62
     3
100
AcDbCircle
 10
638.769044539129
 20
191.805429
 30
0.0
 40
26.04
100
AcDbArc
 50
278.3100119999986
 51
290.4942849999975
  0
ARC
  5
7F4
330
6B
100
AcDbEntity
  8
0
 62
     3
100
AcDbCircle
 10
647.077248539129
 20
169.577369
 30
0.0
 40
2.31
100
AcDbArc
 50
290.4942849999975
 51
69.50571500000255
  0
ARC
  5
7F5
330
6B
100
AcDbEntity
  8
0
 62
     3
100
AcDbCircle
 10
619.777248539129
 20
169.577369
 30
0.0
 40
2.31
100
AcDbArc
 50
110.4942849999974
 51
249.5057150000025
  0
ARC
  5
7F6
330
6B
100
AcDbEntity
  8
0
 62
     3
100
AcDbCircle
 10
628.0854525391287
 20
147.349309
 30
0.0
 40
26.04
100
AcDbArc
 50
98.31001199999851
 51
110.4942849999974
  0
ARC
  5
7F7
330
6B
100
AcDbEntity
  8
0
 62
     3
100
AcDbCircle
 10
628.0854525391287
 20
191.805429
 30
0.0
 40
26.04
100
AcDbArc
 50
249.5057150000025
 51
261.6899880000015
  0
ARC
  5
7F8
330
6B
100
AcDbEntity
  8
0
 62
     3
100
AcDbCircle
 10
633.427248539129
 20
110.777369
 30
0.0
 40
63.0
100
AcDbArc
 50
81.68998800000144
 51
98.31001199999851
  0
ARC
  5
7F9
330
6B
100
AcDbEntity
  8
0
 62
     3
100
AcDbCircle
 10
633.427248539129
 20
228.377369
 30
0.0
 40
63.0
100
AcDbArc
 50
261.6899880000015
 51
278.3100119999986
  0
ARC
  5
7FA
330
6B
100
AcDbEntity
  8
0
 62
     3
100
AcDbCircle
 10
633.427248539129
 20
110.777369
 30
0.0
 40
62.37
100
AcDbArc
 50
81.68998800000144
 51
98.31001199999851
  0
ARC
  5
7FB
330
6B
100
AcDbEntity
  8
0
 62
     3
100
AcDbCircle
 10
633.427248539129
 20
228.377369
 30
0.0
 40
62.37
100
AcDbArc
 50
261.6899880000015
 51
278.3100119999986
  0
ARC
  5
7FC
330
6B
100
AcDbEntity
  8
0
 62
     3
100
AcDbCircle
 10
638.769044539129
 20
191.805429
 30
0.0
 40
25.41
100
AcDbArc
 50
278.3100119999986
 51
290.4942849999975
  0
ARC
  5
7FD
330
6B
100
AcDbEntity
  8
0
 62
     3
100
AcDbCircle
 10
638.769044539129
 20
147.349309
 30
0.0
 40
25.41
100
AcDbArc
 50
69.50571500000255
 51
81.68998800000144
  0
ARC
  5
7FE
330
6B
100
AcDbEntity
  8
0
 62
     3
100
AcDbCircle
 10
647.077248539129
 20
169.577369
 30
0.0
 40
1.679999999999999
100
AcDbArc
 50
290.4942849999975
 51
69.50571500000255
  0
ARC
  5
7FF
330
6B
100
AcDbEntity
  8
0
 62
     3
100
AcDbCircle
 10
619.777248539129
 20
169.577369
 30
0.0
 40
1.679999999999999
100
AcDbArc
 50
110.4942849999974
 51
249.5057150000025
  0
ARC
  5
800
330
6B
100
AcDbEntity
  8
0
 62
     3
100
AcDbCircle
 10
628.0854525391287
 20
147.349309
 30
0.0
 40
25.41
100
AcDbArc
 50
98.31001199999851
 51
110.4942849999974
  0
ARC
  5
801
330
6B
100
AcDbEntity
  8
0
 62
     3
100
AcDbCircle
 10
628.0854525391287
 20
191.805429
 30
0.0
 40
25.41
100
AcDbArc
 50
249.5057150000025
 51
261.6899880000015
  0
LINE
  5
802
330
6B
100
AcDbEntity
  8
0
 62
     2
100
AcDbLine
 10
638.0372095391289
 20
167.500493
 30
0.0
 11
636.1076985391287
 21
167.500493
 31
0.0
  0
LINE
  5
803
330
6B
100
AcDbEntity
  8
0
 62
     2
100
AcDbLine
 10
638.0372095391289
 20
167.7120539999999
 30
0.0
 11
638.0372095391289
 21
167.500493
 31
0.0
  0
LINE
  5
804
330
6B
100
AcDbEntity
  8
0
 62
     2
100
AcDbLine
 10
635.9007405391287
 20
171.6541469999999
 30
0.0
 11
633.9484785391289
 21
171.6541469999999
 31
0.0
  0
LINE
  5
805
330
6B
100
AcDbEntity
  8
0
 62
     2
100
AcDbLine
 10
635.9007405391287
 20
171.6541469999999
 30
0.0
 11
635.9007405391287
 21
171.4426839999999
 31
0.0
  0
LINE
  5
806
330
6B
100
AcDbEntity
  8
0
 62
     2
100
AcDbLine
 10
635.9007405391287
 20
167.7120539999999
 30
0.0
 11
635.9007405391287
 21
167.500394
 31
0.0
  0
LINE
  5
807
330
6B
100
AcDbEntity
  8
0
 62
     2
100
AcDbLine
 10
635.9007405391287
 20
167.500394
 30
0.0
 11
633.9484785391289
 21
167.500394
 31
0.0
  0
LINE
  5
808
330
6B
100
AcDbEntity
  8
0
 62
     2
100
AcDbLine
 10
638.0372095391289
 20
171.654245
 30
0.0
 11
638.0372095391289
 21
171.4426839999999
 31
0.0
  0
LINE
  5
809
330
6B
100
AcDbEntity
  8
0
 62
     2
100
AcDbLine
 10
638.0372095391289
 20
171.654245
 30
0.0
 11
636.1076985391287
 21
171.654245
 31
0.0
  0
LINE
  5
80A
330
6B
100
AcDbEntity
  8
0
 62
     2
100
AcDbLine
 10
636.1076985391287
 20
171.654245
 30
0.0
 11
636.1076985391287
 21
171.4426839999999
 31
0.0
  0
LINE
  5
80B
330
6B
100
AcDbEntity
  8
0
 62
     2
100
AcDbLine
 10
638.2515675391289
 20
167.7120539999999
 30
0.0
 11
638.2515675391289
 21
167.500493
 31
0.0
  0
LINE
  5
80C
330
6B
100
AcDbEntity
  8
0
 62
     2
100
AcDbLine
 10
640.2358685391289
 20
167.500493
 30
0.0
 11
638.2515675391289
 21
167.500493
 31
0.0
  0
LINE
  5
80D
330
6B
100
AcDbEntity
  8
0
 62
     2
100
AcDbLine
 10
639.7453315391287
 20
170.986476
 30
0.0
 11
639.7453315391287
 21
168.168262
 31
0.0
  0
LINE
  5
80E
330
6B
100
AcDbEntity
  8
0
 62
     2
100
AcDbLine
 10
639.7453315391287
 20
168.168262
 30
0.0
 11
639.935380539129
 21
168.168262
 31
0.0
  0
ARC
  5
80F
330
6B
100
AcDbEntity
  8
0
 62
     2
100
AcDbCircle
 10
638.9635955391287
 20
169.577369
 30
0.0
 40
1.711709999999999
100
AcDbArc
 50
304.591955000001
 51
55.40804499999897
  0
LINE
  5
810
330
6B
100
AcDbEntity
  8
0
 62
     2
100
AcDbLine
 10
640.2358685391289
 20
171.654245
 30
0.0
 11
638.2515675391289
 21
171.654245
 31
0.0
  0
LINE
  5
811
330
6B
100
AcDbEntity
  8
0
 62
     2
100
AcDbLine
 10
638.2515675391289
 20
171.654245
 30
0.0
 11
638.2515675391289
 21
171.4426839999999
 31
0.0
  0
LINE
  5
812
330
6B
100
AcDbEntity
  8
0
 62
     2
100
AcDbLine
 10
636.1076985391287
 20
167.7120539999999
 30
0.0
 11
636.1076985391287
 21
167.500493
 31
0.0
  0
LINE
  5
813
330
6B
100
AcDbEntity
  8
0
 62
     2
100
AcDbLine
 10
639.7453315391287
 20
170.986476
 30
0.0
 11
639.935380539129
 21
170.986476
 31
0.0
  0
LINE
  5
814
330
6B
100
AcDbEntity
  8
0
 62
     2
100
AcDbLine
 10
628.102172539129
 20
167.7120539999999
 30
0.0
 11
628.102168539129
 21
167.500473
 31
0.0
  0
LINE
  5
815
330
6B
100
AcDbEntity
  8
0
 62
     2
100
AcDbLine
 10
626.1726565391287
 20
167.500512
 30
0.0
 11
628.102168539129
 21
167.500479
 31
0.0
  0
LINE
  5
816
330
6B
100
AcDbEntity
  8
0
 62
     2
100
AcDbLine
 10
621.8762745391289
 20
167.500493
 30
0.0
 11
623.4155405391287
 21
167.500493
 31
0.0
  0
ARC
  5
817
330
6B
100
AcDbEntity
  8
0
 62
     2
100
AcDbCircle
 10
616.8943325391287
 20
169.6262759999999
 30
0.0
 40
14.713566
100
AcDbArc
 50
353.8660060000001
 51
357.6940339999999
  0
LINE
  5
818
330
6B
100
AcDbEntity
  8
0
 62
     2
100
AcDbLine
 10
630.610912539129
 20
169.037908
 30
0.0
 11
631.5959825391287
 21
169.034263
 31
0.0
  0
LINE
  5
81A
330
6B
100
AcDbEntity
  8
0
 62
     2
100
AcDbLine
 10
630.6148905391287
 20
170.1131229999999
 30
0.0
 11
631.599961539129
 21
170.109478
 31
0.0
  0
ARC
  5
81B
330
6B
100
AcDbEntity
  8
0
 62
     2
100
AcDbCircle
 10
616.8943325391287
 20
169.6262759999999
 30
0.0
 40
14.713566
100
AcDbArc
 50
1.88196599999962
 51
5.709993999999722
  0
LINE
  5
81C
330
6B
100
AcDbEntity
  8
0
 62
     2
100
AcDbLine
 10
628.1022415391287
 20
171.654226
 30
0.0
 11
628.1022375391287
 21
171.4426839999999
 31
0.0
  0
LINE
  5
81D
330
6B
100
AcDbEntity
  8
0
 62
     2
100
AcDbLine
 10
626.172729539129
 20
171.654265
 30
0.0
 11
628.1022415391287
 21
171.654231
 31
0.0
  0
LINE
  5
81E
330
6B
100
AcDbEntity
  8
0
 62
     2
100
AcDbLine
 10
626.1726605391287
 20
167.7120539999999
 30
0.0
 11
626.1726565391287
 21
167.500512
 31
0.0
  0
LINE
  5
81F
330
6B
100
AcDbEntity
  8
0
 62
     2
100
AcDbLine
 10
626.172729539129
 20
171.654265
 30
0.0
 11
626.172725539129
 21
171.4426839999999
 31
0.0
  0
LINE
  5
820
330
6B
100
AcDbEntity
  8
0
 62
     2
100
AcDbLine
 10
623.4155405391287
 20
167.7120539999999
 30
0.0
 11
623.4155405391287
 21
167.500493
 31
0.0
  0
LINE
  5
821
330
6B
100
AcDbEntity
  8
0
 62
     2
100
AcDbLine
 10
622.979792539129
 20
169.936381
 30
0.0
 11
624.502222539129
 21
167.500493
 31
0.0
  0
LINE
  5
822
330
6B
100
AcDbEntity
  8
0
 62
     2
100
AcDbLine
 10
624.502222539129
 20
167.500493
 30
0.0
 11
625.5216555391289
 21
167.500493
 31
0.0
  0
LINE
  5
823
330
6B
100
AcDbEntity
  8
0
 62
     2
100
AcDbLine
 10
625.957402539129
 20
171.654245
 30
0.0
 11
625.957402539129
 21
171.4426839999999
 31
0.0
  0
LINE
  5
824
330
6B
100
AcDbEntity
  8
0
 62
     2
100
AcDbLine
 10
624.418137539129
 20
171.654245
 30
0.0
 11
625.957402539129
 21
171.654245
 31
0.0
  0
LINE
  5
825
330
6B
100
AcDbEntity
  8
0
 62
     2
100
AcDbLine
 10
624.418137539129
 20
171.654245
 30
0.0
 11
624.418137539129
 21
171.4426839999999
 31
0.0
  0
LINE
  5
826
330
6B
100
AcDbEntity
  8
0
 62
     2
100
AcDbLine
 10
624.8538855391289
 20
169.772879
 30
0.0
 11
623.6192385391289
 21
171.654245
 31
0.0
  0
LINE
  5
827
330
6B
100
AcDbEntity
  8
0
 62
     2
100
AcDbLine
 10
621.8762745391289
 20
171.654245
 30
0.0
 11
623.6192385391289
 21
171.654245
 31
0.0
  0
LINE
  5
828
330
6B
100
AcDbEntity
  8
0
 62
     2
100
AcDbLine
 10
631.7924895391286
 20
171.6541469999999
 30
0.0
 11
633.7447515391287
 21
171.6541469999999
 31
0.0
  0
LINE
  5
829
330
6B
100
AcDbEntity
  8
0
 62
     2
100
AcDbLine
 10
631.7924895391286
 20
171.4426839999999
 30
0.0
 11
631.7924895391286
 21
171.6541469999999
 31
0.0
  0
LINE
  5
82A
330
6B
100
AcDbEntity
  8
0
 62
     2
100
AcDbLine
 10
631.7924895391286
 20
167.500394
 30
0.0
 11
631.7924895391286
 21
167.7120539999999
 31
0.0
  0
LINE
  5
82B
330
6B
100
AcDbEntity
  8
0
 62
     2
100
AcDbLine
 10
631.7924895391286
 20
167.500394
 30
0.0
 11
633.7447515391287
 21
167.500394
 31
0.0
  0
LINE
  5
82C
330
6B
100
AcDbEntity
  8
0
 62
     2
100
AcDbLine
 10
633.9484785391289
 20
167.7120539999999
 30
0.0
 11
633.9484785391289
 21
167.500394
 31
0.0
  0
LINE
  5
82D
330
6B
100
AcDbEntity
  8
0
 62
     2
100
AcDbLine
 10
633.7447515391287
 20
167.7120539999999
 30
0.0
 11
633.7447515391287
 21
167.500394
 31
0.0
  0
LINE
  5
82E
330
6B
100
AcDbEntity
  8
0
 62
     2
100
AcDbLine
 10
633.7447515391287
 20
171.4426839999999
 30
0.0
 11
633.7447515391287
 21
171.6541469999999
 31
0.0
  0
LINE
  5
82F
330
6B
100
AcDbEntity
  8
0
 62
     2
100
AcDbLine
 10
633.9484785391289
 20
171.4426839999999
 30
0.0
 11
633.9484785391289
 21
171.6541469999999
 31
0.0
  0
LINE
  5
830
330
6B
100
AcDbEntity
  8
0
 62
     2
100
AcDbLine
 10
621.8762745391289
 20
167.7120539999999
 30
0.0
 11
621.8762745391289
 21
167.500493
 31
0.0
  0
LINE
  5
831
330
6B
100
AcDbEntity
  8
0
 62
     2
100
AcDbLine
 10
621.8762745391289
 20
171.654245
 30
0.0
 11
621.8762745391289
 21
171.4426839999999
 31
0.0
  0
ARC
  5
832
330
6B
100
AcDbEntity
  8
0
 62
     2
100
AcDbCircle
 10
640.4458685391289
 20
170.0131169999999
 30
0.0
 40
1.641127999999999
100
AcDbArc
 50
17.30874899999935
 51
23.76507099999978
  0
ARC
  5
833
330
6B
100
AcDbEntity
  8
0
 62
     2
100
AcDbCircle
 10
639.0475955391289
 20
169.577369
 30
0.0
 40
3.105725999999998
100
AcDbArc
 50
342.6912510000006
 51
17.30856600000069
  0
ARC
  5
834
330
6B
100
AcDbEntity
  8
0
 62
     2
100
AcDbCircle
 10
640.4458685391289
 20
169.141621
 30
0.0
 40
1.641127999999999
100
AcDbArc
 50
336.2349290000009
 51
342.6912510000006
  0
ARC
  5
835
330
6B
100
AcDbEntity
  8
0
 62
     2
100
AcDbCircle
 10
640.2358685391289
 20
170.0131169999999
 30
0.0
 40
1.641127999999999
100
AcDbArc
 50
17.30874899999935
 51
90.0
  0
ARC
  5
836
330
6B
100
AcDbEntity
  8
0
 62
     2
100
AcDbCircle
 10
638.8375955391287
 20
169.577369
 30
0.0
 40
3.105725999999998
100
AcDbArc
 50
342.6912510000006
 51
17.30856600000069
  0
ARC
  5
837
330
6B
100
AcDbEntity
  8
0
 62
     2
100
AcDbCircle
 10
640.2358685391289
 20
169.141621
 30
0.0
 40
1.641127999999999
100
AcDbArc
 50
270.0
 51
342.6912510000006
  0
ARC
  5
838
330
6B
100
AcDbEntity
  8
0
 62
     2
100
AcDbCircle
 10
630.1119285391287
 20
169.577369
 30
0.0
 40
2.076875999999999
100
AcDbArc
 50
46.75288000000075
 51
89.74999799999961
  0
ARC
  5
839
330
6B
100
AcDbEntity
  8
0
 62
     2
100
AcDbCircle
 10
630.1119285391287
 20
169.577369
 30
0.0
 40
2.076875999999999
100
AcDbArc
 50
273.9763330000016
 51
312.8231200000008
  0
ARC
  5
83A
330
6B
100
AcDbEntity
  8
0
 62
     2
100
AcDbCircle
 10
641.553736539129
 20
169.545307
 30
0.0
 40
2.755888999999998
100
AcDbArc
 50
0.6665839999997916
 51
23.90392800000007
  0
ARC
  5
83B
330
6B
100
AcDbEntity
  8
0
 62
     2
100
AcDbCircle
 10
645.4692985391289
 20
169.545307
 30
0.0
 40
2.755888999999998
100
AcDbArc
 50
156.0960719999999
 51
179.3334160000002
  0
ARC
  5
83C
330
6B
100
AcDbEntity
  8
0
 62
     2
100
AcDbCircle
 10
641.553736539129
 20
169.6094299999999
 30
0.0
 40
2.755888999999998
100
AcDbArc
 50
336.0960719999998
 51
359.3334160000002
  0
ARC
  5
83D
330
6B
100
AcDbEntity
  8
0
 62
     2
100
AcDbCircle
 10
645.4692985391289
 20
169.6094299999999
 30
0.0
 40
2.755888999999998
100
AcDbArc
 50
180.6665839999998
 51
203.9039280000001
  0
LINE
  5
840
330
6B
100
AcDbEntity
  8
0
 62
     3
100
AcDbLine
 10
709.049624539129
 20
-90.679037
 30
0.0
 11
709.049624539129
 21
-67.67903700000001
 31
0.0
  0
LINE
  5
842
330
6B
100
AcDbEntity
  8
0
 62
     3
100
AcDbLine
 10
655.9960145391287
 20
-97.67903699999999
 30
0.0
 11
655.9960145391287
 21
-83.67903700000002
 31
0.0
  0
TEXT
  5
844
330
6B
100
AcDbEntity
  8
0
 62
     3
100
AcDbText
 10
685.059942539129
 20
-71.47392100000002
 30
0.0
 40
2.0
  1
A
 41
0.7
100
AcDbText
  0
TEXT
  5
845
330
6B
100
AcDbEntity
  8
0
 62
     3
100
AcDbText
 10
687.5952285391291
 20
-71.47392100000002
 30
0.0
 40
2.0
  1
P
 41
0.7
100
AcDbText
  0
TEXT
  5
846
330
6B
100
AcDbEntity
  8
0
 62
     3
100
AcDbText
 10
690.1305145391289
 20
-71.47392100000002
 30
0.0
 40
2.0
  1
P
 41
0.7
100
AcDbText
  0
TEXT
  5
847
330
6B
100
AcDbEntity
  8
0
 62
     3
100
AcDbText
 10
692.6658005391287
 20
-71.47392100000002
 30
0.0
 40
2.0
  1
D
 41
0.7
100
AcDbText
  0
TEXT
  5
848
330
6B
100
AcDbEntity
  8
0
 62
     3
100
AcDbText
 10
698.0344845391289
 20
-71.47392100000002
 30
0.0
 40
2.0
  1
C
 41
0.7
100
AcDbText
  0
TEXT
  5
849
330
6B
100
AcDbEntity
  8
0
 62
     3
100
AcDbText
 10
700.5697705391287
 20
-71.47392100000002
 30
0.0
 40
2.0
  1
H
 41
0.7
100
AcDbText
  0
TEXT
  5
84A
330
6B
100
AcDbEntity
  8
0
 62
     3
100
AcDbText
 10
703.1050565391287
 20
-71.47392100000002
 30
0.0
 40
2.0
  1
C
 41
0.7
100
AcDbText
  0
TEXT
  5
84B
330
6B
100
AcDbEntity
  8
0
 62
     3
100
AcDbText
 10
705.6403425391287
 20
-71.47392100000002
 30
0.0
 40
2.0
  1
K
 41
0.7
100
AcDbText
  0
TEXT
  5
84C
330
6B
100
AcDbEntity
  8
0
 62
     3
100
AcDbText
 10
711.314309539129
 20
-71.47392100000002
 30
0.0
 40
2.0
  1
DESN
 41
1.216762999999998
100
AcDbText
  0
TEXT
  5
84D
330
6B
100
AcDbEntity
  8
0
 62
     3
100
AcDbText
 10
626.3079505391291
 20
-100.820419
 30
0.0
 40
2.0
  1
NICHIDO IND.CO.LTD
 41
1.274876
100
AcDbText
  0
LINE
  5
84E
330
6B
100
AcDbEntity
  8
0
 62
     3
100
AcDbLine
 10
636.690979539129
 20
-67.67903700000001
 30
0.0
 11
636.690979539129
 21
-90.679037
 31
0.0
  0
LINE
  5
84F
330
6B
100
AcDbEntity
  8
0
 62
     3
100
AcDbLine
 10
683.049624539129
 20
-67.67903700000001
 30
0.0
 11
683.049624539129
 21
-107.34476
 31
0.0
  0
LINE
  5
853
330
6B
100
AcDbEntity
  8
0
 62
     3
100
AcDbLine
 10
696.049624539129
 20
-67.67903700000001
 30
0.0
 11
696.049624539129
 21
-97.67903699999999
 31
0.0
  0
TEXT
  5
854
330
6B
100
AcDbEntity
  8
0
 62
     3
100
AcDbText
 10
684.162068539129
 20
-96.81435
 30
0.0
 40
3.2
  1
作成日
 41
1.017225999999997
100
AcDbText
  0
LINE
  5
855
330
6B
100
AcDbEntity
  8
0
 62
     3
100
AcDbLine
 10
734.748987539129
 20
-67.67903700000001
 30
0.0
 11
623.4455455391286
 21
-67.67903700000001
 31
0.0
  0
LINE
  5
856
330
6B
100
AcDbEntity
  8
0
 62
     3
100
AcDbLine
 10
722.049624539129
 20
-90.679037
 30
0.0
 11
722.049624539129
 21
-67.67903700000001
 31
0.0
  0
TEXT
  5
857
330
6B
100
AcDbEntity
  8
0
 62
     3
100
AcDbText
 10
725.3734275391289
 20
-71.388103
 30
0.0
 40
1.8
  1
D
 41
0.666667
100
AcDbText
  0
TEXT
  5
858
330
6B
100
AcDbEntity
  8
0
 62
     3
100
AcDbText
 10
728.1900555391286
 20
-71.388103
 30
0.0
 40
1.8
  1
E
 41
0.666667
100
AcDbText
  0
TEXT
  5
859
330
6B
100
AcDbEntity
  8
0
 62
     3
100
AcDbText
 10
731.0066835391287
 20
-71.388103
 30
0.0
 40
1.8
  1
F
 41
0.666667
100
AcDbText
  0
TEXT
  5
85A
330
6B
100
AcDbEntity
  8
0
 62
     3
100
AcDbText
 10
725.3734275391289
 20
-75.380656
 30
0.0
 40
3.2
  1
製図
 41
1.076369
100
AcDbText
  0
LINE
  5
85B
330
6B
100
AcDbEntity
  8
0
 62
     3
100
AcDbLine
 10
623.4455455391286
 20
-67.67903700000001
 30
0.0
 11
623.4455455391286
 21
-107.34476
 31
0.0
  0
TEXT
  5
85C
330
6B
100
AcDbEntity
  8
0
 62
     3
100
AcDbText
 10
624.8221975391287
 20
-107.012294
 30
0.0
 40
5.0
  1
日動工業株式会社
 41
0.833333
100
AcDbText
  0
LINE
  5
85D
330
6B
100
AcDbEntity
  8
0
 62
     3
100
AcDbLine
 10
666.3279495391286
 20
-83.67903700000002
 30
0.0
 11
666.3279495391289
 21
-107.34476
 31
0.0
  0
LINE
  5
85E
330
6B
100
AcDbEntity
  8
0
 62
     3
100
AcDbLine
 10
666.3279495391289
 20
-102.511898
 30
0.0
 11
683.049624539129
 21
-102.511898
 31
0.0
  0
TEXT
  5
85F
330
6B
100
AcDbEntity
  8
0
 62
     3
100
AcDbText
 10
666.9145515391289
 20
-101.695468
 30
0.0
 40
3.2
  1
出図コード
 41
0.8356860000000001
100
AcDbText
  0
LINE
  5
861
330
6B
100
AcDbEntity
  8
0
 62
     3
100
AcDbLine
 10
623.4455455391286
 20
-97.67903699999997
 30
0.0
 11
734.748987539129
 21
-97.67903699999999
 31
0.0
  0
LINE
  5
863
330
6B
100
AcDbEntity
  8
0
 62
     3
100
AcDbLine
 10
623.4455455391285
 20
-76.679037
 30
0.0
 11
734.748987539129
 21
-76.679037
 31
0.0
  0
LINE
  5
869
330
6B
100
AcDbEntity
  8
0
 62
     3
100
AcDbLine
 10
623.4455455391286
 20
-83.67903700000002
 30
0.0
 11
683.049624539129
 21
-83.67903700000002
 31
0.0
  0
LINE
  5
86F
330
6B
100
AcDbEntity
  8
0
 62
     3
100
AcDbLine
 10
623.4455455391286
 20
-90.67903699999998
 30
0.0
 11
734.748987539129
 21
-90.679037
 31
0.0
  0
TEXT
  5
870
330
6B
100
AcDbEntity
  8
0
 62
     3
100
AcDbText
 10
666.7820025391287
 20
-106.742565
 30
0.0
 40
3.2
  1
ZK-A4Y
 41
0.8112849999999999
100
AcDbText
  0
LINE
  5
871
330
6B
100
AcDbEntity
  8
0
 62
     3
100
AcDbLine
 10
554.7919225391289
 20
169.65524
 30
0.0
 11
554.7919225391289
 21
-107.34476
 31
0.0
  0
LINE
  5
872
330
6B
100
AcDbEntity
  8
0
 62
     3
100
AcDbLine
 10
734.7919225391287
 20
-107.34476
 30
0.0
 11
734.7919225391287
 21
169.65524
 31
0.0
  0
LINE
  5
873
330
6B
100
AcDbEntity
  8
0
 62
     3
100
AcDbLine
 10
734.7919225391287
 20
-107.34476
 30
0.0
 11
554.7919225391289
 21
-107.34476
 31
0.0
  0
TEXT
  5
874
330
6B
100
AcDbEntity
  8
0
 62
     3
100
AcDbText
 10
625.2629425391289
 20
-71.509511
 30
0.0
 40
2.0
  1
CONPONENTS
 41
0.5331600000000001
100
AcDbText
  0
TEXT
  5
875
330
6B
100
AcDbEntity
  8
0
 62
     3
100
AcDbText
 10
624.9132155391285
 20
-90.44168799999999
 30
0.0
 40
3.0
  1
材
 41
0.833333
100
AcDbText
  0
TEXT
  5
876
330
6B
100
AcDbEntity
  8
0
 62
     3
100
AcDbText
 10
632.4488585391287
 20
-90.44168799999999
 30
0.0
 40
3.0
  1
質
 41
0.833333
100
AcDbText
  0
TEXT
  5
877
330
6B
100
AcDbEntity
  8
0
 62
     3
100
AcDbText
 10
625.001286539129
 20
-79.817164
 30
0.0
 40
2.0
  1
MODEL
 41
1.031072999999999
100
AcDbText
  0
TEXT
  5
878
330
6B
100
AcDbEntity
  8
0
 62
     3
100
AcDbText
 10
624.9132155391285
 20
-86.75938
 30
0.0
 40
2.0
  1
MATERIAL
 41
0.659278
100
AcDbText
  0
TEXT
  5
879
330
6B
100
AcDbEntity
  8
0
 62
     3
100
AcDbText
 10
656.2204955391287
 20
-90.44168799999999
 30
0.0
 40
3.0
  1
備
 41
0.833333
100
AcDbText
  0
TEXT
  5
87A
330
6B
100
AcDbEntity
  8
0
 62
     3
100
AcDbText
 10
662.9534975391289
 20
-90.44168799999999
 30
0.0
 40
3.0
  1
考
 41
0.833333
100
AcDbText
  0
TEXT
  5
87B
330
6B
100
AcDbEntity
  8
0
 62
     3
100
AcDbText
 10
656.5182786956762
 20
-86.75938
 30
0.0
 40
2.0
  1
REMARKS
 41
0.675794
100
AcDbText
  0
TEXT
  5
87C
330
6B
100
AcDbEntity
  8
0
 62
     3
100
AcDbText
 10
626.502944539129
 20
-93.67950099999999
 30
0.0
 40
2.0
  1
3AD
 41
1.42614
100
AcDbText
  0
TEXT
  5
87D
330
6B
100
AcDbEntity
  8
0
 62
     3
100
AcDbText
 10
635.8139245391287
 20
-93.51376700000001
 30
0.0
 40
2.0
  1
ANGLE
 41
1.669883999999995
100
AcDbText
  0
TEXT
  5
87E
330
6B
100
AcDbEntity
  8
0
 62
     3
100
AcDbText
 10
656.7478115391288
 20
-93.89060800000001
 30
0.0
 40
2.0
  1
SCALE
 41
0.7719630000000001
100
AcDbText
  0
TEXT
  5
87F
330
6B
100
AcDbEntity
  8
0
 62
     3
100
AcDbText
 10
626.189074539129
 20
-97.67903699999999
 30
0.0
 40
3.0
  1
第
 41
0.833333
100
AcDbText
  0
TEXT
  5
880
330
6B
100
AcDbEntity
  8
0
 62
     3
100
AcDbText
 10
633.975924539129
 20
-97.67903699999999
 30
0.0
 40
3.0
  1
三
 41
0.833333
100
AcDbText
  0
TEXT
  5
881
330
6B
100
AcDbEntity
  8
0
 62
     3
100
AcDbText
 10
641.7627745391285
 20
-97.67903699999999
 30
0.0
 40
3.0
  1
角
 41
0.833333
100
AcDbText
  0
TEXT
  5
882
330
6B
100
AcDbEntity
  8
0
 62
     3
100
AcDbText
 10
649.5496245391287
 20
-97.67903699999999
 30
0.0
 40
3.0
  1
法
 41
0.833333
100
AcDbText
  0
TEXT
  5
883
330
6B
100
AcDbEntity
  8
0
 62
     3
100
AcDbText
 10
656.611016539129
 20
-97.390608
 30
0.0
 40
3.0
  1
尺
 41
0.833333
100
AcDbText
  0
TEXT
  5
884
330
6B
100
AcDbEntity
  8
0
 62
     3
100
AcDbText
 10
663.344017539129
 20
-97.390608
 30
0.0
 40
3.0
  1
度
 41
0.833333
100
AcDbText
  0
TEXT
  5
885
330
6B
100
AcDbEntity
  8
0
 62
     3
100
AcDbText
 10
685.9272885391288
 20
-75.22130799999998
 30
0.0
 40
3.0
  1
承認
 41
1.089472999999999
100
AcDbText
  0
TEXT
  5
886
330
6B
100
AcDbEntity
  8
0
 62
     3
100
AcDbText
 10
699.1701685391285
 20
-75.279037
 30
0.0
 40
3.0
  1
検図
 41
0.931761
100
AcDbText
  0
TEXT
  5
887
330
6B
100
AcDbEntity
  8
0
 62
     3
100
AcDbText
 10
712.1705655391287
 20
-75.279037
 30
0.0
 40
3.0
  1
設
 41
0.833333
100
AcDbText
  0
TEXT
  5
888
330
6B
100
AcDbEntity
  8
0
 62
     3
100
AcDbText
 10
716.660433539129
 20
-75.279037
 30
0.0
 40
3.0
  1
計
 41
0.833333
100
AcDbText
  0
TEXT
  5
889
330
6B
100
AcDbEntity
  8
0
 62
     3
100
AcDbText
 10
625.1944135391291
 20
-75.99028100000002
 30
0.0
 40
3.0
  1
品
 41
0.833333
100
AcDbText
  0
TEXT
  5
88A
330
6B
100
AcDbEntity
  8
0
 62
     3
100
AcDbText
 10
632.730056539129
 20
-75.99028100000002
 30
0.0
 40
3.0
  1
名
 41
0.833333
100
AcDbText
  0
TEXT
  5
88B
330
6B
100
AcDbEntity
  8
0
 62
     3
100
AcDbText
 10
625.001286539129
 20
-83.44942299999997
 30
0.0
 40
3.0
  1
型
 41
0.833333
100
AcDbText
  0
TEXT
  5
88C
330
6B
100
AcDbEntity
  8
0
 62
     3
100
AcDbText
 10
632.5493765391287
 20
-83.44942299999997
 30
0.0
 40
3.0
  1
式
 41
0.833333
100
AcDbText
  0
LINE
  5
88D
330
6B
100
AcDbEntity
  8
0
 62
     3
100
AcDbLine
 10
650.1195855391287
 20
169.65524
 30
0.0
 11
734.7919225391287
 21
169.65524
 31
0.0
  0
LINE
  5
88E
330
6B
100
AcDbEntity
  8
0
 62
     3
100
AcDbLine
 10
616.7068385391289
 20
169.65524
 30
0.0
 11
554.7919225391289
 21
169.65524
 31
0.0
  0
LINE
  5
88F
330
6B
100
AcDbEntity
  8
0
 62
     7
100
AcDbLine
 10
661.2973565391286
 20
165.1498509999999
 30
0.0
 11
661.2973565391286
 21
140.3998509999995
 31
0.0
  0
LINE
  5
890
330
6B
100
AcDbEntity
  8
0
 62
     7
100
AcDbLine
 10
734.7919225391287
 20
155.249851
 30
0.0
 11
651.191922539129
 21
155.2498509999999
 31
0.0
  0
LINE
  5
891
330
6B
100
AcDbEntity
  8
0
 62
     7
100
AcDbLine
 10
723.1943975391287
 20
165.1498509999999
 30
0.0
 11
723.1943975391287
 21
140.3998509999997
 31
0.0
  0
LINE
  5
892
330
6B
100
AcDbEntity
  8
0
 62
     7
100
AcDbLine
 10
678.9026825391287
 20
165.1498509999999
 30
0.0
 11
678.9026825391284
 21
140.3998509999996
 31
0.0
  0
LINE
  5
893
330
6B
100
AcDbEntity
  8
0
 62
     7
100
AcDbLine
 10
651.191922539129
 20
160.1998509999999
 30
0.0
 11
734.7919225391287
 21
160.1998509999999
 31
0.0
  0
TEXT
  5
894
330
6B
100
AcDbEntity
  8
0
 62
     3
100
AcDbText
 10
699.6331735391287
 20
-96.90462100000001
 30
0.0
 40
3.2
  1
2008.8.28
  7
高3.2
100
AcDbText
  0
TEXT
  5
895
330
6B
100
AcDbEntity
  8
0
 62
     3
100
AcDbText
 10
671.0603898641258
 20
-96.79104000000002
 30
0.0
 40
3.2
  1
1/1
  7
高3.2
100
AcDbText
  0
TEXT
  5
896
330
6B
100
AcDbEntity
  8
0
 62
     3
100
AcDbText
 10
669.1963085391287
 20
-90.12598699999999
 30
0.0
 40
3.2
  1
交換球
  7
高3.2
100
AcDbText
  0
TEXT
  5
8AB
330
6B
100
AcDbEntity
  8
0
 62
     3
100
AcDbText
 10
638.115596539129
 20
-75.788133
 30
0.0
 40
4.5
  1
インバーター式蛍光灯
 41
0.8
  7
高4.5
100
AcDbText
  0
TEXT
  5
8AC
330
6B
100
AcDbEntity
  8
0
 62
     3
100
AcDbText
 10
623.5571105391287
 20
-65.958607
 30
0.0
 40
4.5
  1
トルネード型蛍光灯
  7
高4.5
100
AcDbText
  0
LINE
  5
8AF
330
6B
100
AcDbEntity
  8
0
 62
     3
100
AcDbLine
 10
709.049624539129
 20
-67.67903700000001
 30
0.0
 11
709.049624539129
 21
-61.679037
 31
0.0
  0
LINE
  5
8B0
330
6B
100
AcDbEntity
  8
0
 62
     3
100
AcDbLine
 10
683.049624539129
 20
-67.67903700000001
 30
0.0
 11
683.049624539129
 21
-61.679037
 31
0.0
  0
LINE
  5
8B1
330
6B
100
AcDbEntity
  8
0
 62
     3
100
AcDbLine
 10
734.748987539129
 20
-61.679037
 30
0.0
 11
683.049624539129
 21
-61.679037
 31
0.0
  0
TEXT
  5
8B2
330
6B
100
AcDbEntity
  8
0
 62
     3
100
AcDbText
 10
689.045222539129
 20
-66.882688
 30
0.0
 40
4.5
  1
コード
  7
高4.5
100
AcDbText
  0
LINE
  5
8B3
330
6B
100
AcDbEntity
  8
0
 62
     7
100
AcDbLine
 10
656.009627539129
 20
159.460606
 30
0.0
 11
654.1096275391287
 21
156.169709
 31
0.0
  0
LINE
  5
8B4
330
6B
100
AcDbEntity
  8
0
 62
     7
100
AcDbLine
 10
656.009627539129
 20
159.460606
 30
0.0
 11
657.909627539129
 21
156.169709
 31
0.0
  0
LINE
  5
8B5
330
6B
100
AcDbEntity
  8
0
 62
     7
100
AcDbLine
 10
654.1096275391287
 20
156.169709
 30
0.0
 11
657.909627539129
 21
156.169709
 31
0.0
  0
LINE
  5
8B6
330
6B
100
AcDbEntity
  8
0
 62
     7
100
AcDbLine
 10
656.009627539129
 20
154.3043949999999
 30
0.0
 11
654.1096275391287
 21
151.0134989999999
 31
0.0
  0
LINE
  5
8B7
330
6B
100
AcDbEntity
  8
0
 62
     7
100
AcDbLine
 10
656.009627539129
 20
154.3043949999999
 30
0.0
 11
657.909627539129
 21
151.0134989999999
 31
0.0
  0
LINE
  5
8B8
330
6B
100
AcDbEntity
  8
0
 62
     7
100
AcDbLine
 10
654.1096275391287
 20
151.0134989999999
 30
0.0
 11
657.909627539129
 21
151.0134989999999
 31
0.0
  0
TEXT
  5
8BE
330
6B
100
AcDbEntity
  8
0
 62
     3
100
AcDbText
 10
645.9462665391287
 20
-83.06466700000001
 30
0.0
 40
4.5
  1
F27W-T
  7
高4.5
100
AcDbText
  0
TEXT
  5
8BF
330
6B
100
AcDbEntity
  8
0
 62
     3
100
AcDbText
 10
689.7766467031141
 20
-106.1986963133668
 30
0.0
 40
6.299999999999998
  1
F27W-T
  7
高6.3
100
AcDbText
  0
TEXT
  5
8C0
330
6B
100
AcDbEntity
  8
0
 62
     3
100
AcDbText
 10
713.3698934716483
 20
-67.03490000000001
 30
0.0
 40
4.5
  1
53350
  7
高4.5
100
AcDbText
  0
LINE
  5
8C1
330
6B
100
AcDbEntity
  8
0
 62
     3
100
AcDbLine
 10
543.2798495391288
 20
31.15523999999999
 30
0.0
 11
542.791922539129
 21
31.15523999999999
 31
0.0
  0
TEXT
  5
940
330
6B
100
AcDbEntity
  8
0
  6
Continuous
100
AcDbText
 10
662.7973565391287
 20
155.7498509999999
 30
0.0
 40
2.5
  1
13.03.27
  7
高2.5
100
AcDbText
  0
TEXT
  5
941
330
6B
100
AcDbEntity
  8
0
  6
Continuous
100
AcDbText
 10
680.4026825391287
 20
155.7498509999999
 30
0.0
 40
2.5
  1
形状および仕様変更
  7
高2.5
100
AcDbText
  0
TEXT
  5
942
330
6B
100
AcDbEntity
  8
0
  6
Continuous
100
AcDbText
 10
724.6943975391289
 20
155.749851
 30
0.0
 40
2.5
  1
今村
  7
高2.5
100
AcDbText
  0
TEXT
  5
C3A
330
6B
100
AcDbEntity
  8
0
  6
Continuous
100
AcDbText
 10
662.7973565391287
 20
150.7998509999998
 30
0.0
 40
2.5
  1
14.04.17
  7
高2.5
100
AcDbText
  0
TEXT
  5
C3B
330
6B
100
AcDbEntity
  8
0
  6
Continuous
100
AcDbText
 10
680.4026825391287
 20
150.7998509999998
 30
0.0
 40
2.5
  1
仕様変更
  7
高2.5
100
AcDbText
  0
TEXT
  5
C3C
330
6B
100
AcDbEntity
  8
0
  6
Continuous
100
AcDbText
 10
724.6943975391289
 20
150.799851
 30
0.0
 40
2.5
  1
今村
  7
高2.5
100
AcDbText
  0
TEXT
  5
10A0
330
6B
100
AcDbEntity
  8
0
 62
     3
100
AcDbText
 10
655.3541585284269
 20
146.1854188989683
 30
0.0
 40
2.0
  1
3
  7
高2
100
AcDbText
  0
LINE
  5
10A1
330
6B
100
AcDbEntity
  8
0
 62
     7
100
AcDbLine
 10
734.7919225391287
 20
145.3498509999999
 30
0.0
 11
651.191922539129
 21
145.3498509999997
 31
0.0
  0
LINE
  5
10A2
330
6B
100
AcDbEntity
  8
0
 62
     7
100
AcDbLine
 10
656.009627539129
 20
149.3543949999998
 30
0.0
 11
654.1096275391287
 21
146.0634989999998
 31
0.0
  0
LINE
  5
10A3
330
6B
100
AcDbEntity
  8
0
 62
     7
100
AcDbLine
 10
656.009627539129
 20
149.3543949999998
 30
0.0
 11
657.909627539129
 21
146.0634989999998
 31
0.0
  0
LINE
  5
10A4
330
6B
100
AcDbEntity
  8
0
 62
     7
100
AcDbLine
 10
654.1096275391287
 20
146.0634989999998
 30
0.0
 11
657.909627539129
 21
146.0634989999998
 31
0.0
  0
TEXT
  5
10A5
330
6B
100
AcDbEntity
  8
0
  6
Continuous
100
AcDbText
 10
662.7973565391287
 20
145.8498509999997
 30
0.0
 40
2.5
  1
14.11.26
  7
高2.5
100
AcDbText
  0
TEXT
  5
10A6
330
6B
100
AcDbEntity
  8
0
  6
Continuous
100
AcDbText
 10
724.6943975391289
 20
145.8498509999999
 30
0.0
 40
2.5
  1
今村
  7
高2.5
100
AcDbText
  0
TEXT
  5
10A8
330
6B
100
AcDbEntity
  8
0
  6
Continuous
100
AcDbText
 10
680.4026825391287
 20
145.8498509999998
 30
0.0
 40
2.5
  1
形状および仕様変更
  7
高2.5
100
AcDbText
  0
LINE
  5
118A
330
6B
100
AcDbEntity
  8
0
  6
CENTER
 62
     7
100
AcDbLine
 10
614.4148705793115
 20
116.9303232354989
 30
0.0
 11
614.4148705793115
 21
-43.73305900998457
 31
0.0
  0
LINE
  5
118B
330
6B
100
AcDbEntity
  8
0
 62
     3
100
AcDbLine
 10
594.8148705793112
 20
31.79119429954136
 30
0.0
 11
594.8148705793113
 21
22.656964
 31
0.0
  0
ARC
  5
118C
330
6B
100
AcDbEntity
  8
0
  6
Continuous
 62
     3
100
AcDbCircle
 10
589.8148705793111
 20
31.79119429954136
 30
0.0
 40
5.0
100
AcDbArc
 50
0.0
 51
76.50426671920604
  0
LINE
  5
118D
330
6B
100
AcDbEntity
  8
0
 62
     3
100
AcDbLine
 10
604.8148705793113
 20
30.76279748896675
 30
0.0
 11
604.8148705793113
 21
22.656964
 31
0.0
  0
ARC
  5
118E
330
6B
100
AcDbEntity
  8
0
  6
Continuous
 62
     3
100
AcDbCircle
 10
589.8148705793111
 20
30.76279748896675
 30
0.0
 40
15.0
100
AcDbArc
 50
0.0
 51
37.85434993259578
  0
LINE
  5
118F
330
6B
100
AcDbEntity
  8
0
 62
     3
100
AcDbLine
 10
634.0148705793113
 20
31.79119429954136
 30
0.0
 11
634.0148705793113
 21
22.656964
 31
0.0
  0
ARC
  5
1190
330
6B
100
AcDbEntity
  8
0
  6
Continuous
 62
     3
100
AcDbCircle
 10
639.0148705793112
 20
31.79119429954136
 30
0.0
 40
5.0
100
AcDbArc
 50
103.4957332807939
 51
180.0
  0
LINE
  5
1191
330
6B
100
AcDbEntity
  8
0
 62
     3
100
AcDbLine
 10
624.0148705793115
 20
30.76279748896675
 30
0.0
 11
624.0148705793114
 21
22.656964
 31
0.0
  0
ARC
  5
1192
330
6B
100
AcDbEntity
  8
0
  6
Continuous
 62
     3
100
AcDbCircle
 10
639.0148705793112
 20
30.76279748896675
 30
0.0
 40
15.0
100
AcDbArc
 50
103.4957332807939
 51
180.0
  0
ARC
  5
1194
330
6B
100
AcDbEntity
  8
0
  6
Continuous
 62
     3
100
AcDbCircle
 10
639.4148705793115
 20
89.65696400000002
 30
0.0
 40
4.5
100
AcDbArc
 50
283.495733280794
 51
103.4957332807939
  0
ARC
  5
1195
330
6B
100
AcDbEntity
  8
0
  6
Continuous
 62
     3
100
AcDbCircle
 10
639.4148705793115
 20
77.65696400000002
 30
0.0
 40
4.5
100
AcDbArc
 50
283.495733280794
 51
103.4957332807939
  0
ARC
  5
1196
330
6B
100
AcDbEntity
  8
0
  6
Continuous
 62
     3
100
AcDbCircle
 10
639.4148705793115
 20
65.65696400000001
 30
0.0
 40
4.5
100
AcDbArc
 50
283.495733280794
 51
103.4957332807939
  0
ARC
  5
1197
330
6B
100
AcDbEntity
  8
0
  6
Continuous
 62
     3
100
AcDbCircle
 10
639.4148705793115
 20
53.656964
 30
0.0
 40
4.5
100
AcDbArc
 50
283.495733280794
 51
103.4957332807939
  0
ARC
  5
1198
330
6B
100
AcDbEntity
  8
0
  6
Continuous
 62
     3
100
AcDbCircle
 10
639.4148705793115
 20
41.65696400000002
 30
0.0
 40
4.5
100
AcDbArc
 50
283.495733280794
 51
103.4957332807939
  0
ARC
  5
1199
330
6B
100
AcDbEntity
  8
0
  6
Continuous
 62
     3
100
AcDbCircle
 10
589.4148705793115
 20
89.65696400000002
 30
0.0
 40
4.5
100
AcDbArc
 50
103.4957332807939
 51
283.495733280794
  0
ARC
  5
119A
330
6B
100
AcDbEntity
  8
0
  6
Continuous
 62
     3
100
AcDbCircle
 10
589.4148705793115
 20
77.65696400000002
 30
0.0
 40
4.5
100
AcDbArc
 50
103.4957332807939
 51
283.495733280794
  0
ARC
  5
119B
330
6B
100
AcDbEntity
  8
0
  6
Continuous
 62
     3
100
AcDbCircle
 10
589.4148705793115
 20
65.65696400000001
 30
0.0
 40
4.5
100
AcDbArc
 50
103.4957332807939
 51
283.495733280794
  0
ARC
  5
119C
330
6B
100
AcDbEntity
  8
0
  6
Continuous
 62
     3
100
AcDbCircle
 10
589.4148705793115
 20
53.656964
 30
0.0
 40
4.5
100
AcDbArc
 50
103.4957332807939
 51
283.495733280794
  0
ARC
  5
119D
330
6B
100
AcDbEntity
  8
0
  6
Continuous
 62
     3
100
AcDbCircle
 10
589.4148705793115
 20
41.65696400000002
 30
0.0
 40
4.5
100
AcDbArc
 50
103.4957332807939
 51
283.495733280794
  0
LINE
  5
119E
330
6B
100
AcDbEntity
  8
0
  6
Continuous
 62
     3
100
AcDbLine
 10
638.9650488654503
 20
96.92122114108769
 30
0.0
 11
590.4650488654502
 21
85.28122114108766
 31
0.0
  0
LINE
  5
119F
330
6B
100
AcDbEntity
  8
0
  6
Continuous
 62
     3
100
AcDbLine
 10
636.8646922931725
 20
105.6727068589123
 30
0.0
 11
588.3646922931721
 21
94.03270685891232
 31
0.0
  0
LINE
  5
11A0
330
6B
100
AcDbEntity
  8
0
  6
Continuous
 62
     3
100
AcDbLine
 10
640.4650488654502
 20
85.28122114108766
 30
0.0
 11
590.4650488654502
 21
73.28122114108764
 31
0.0
  0
LINE
  5
11A1
330
6B
100
AcDbEntity
  8
0
  6
Continuous
 62
     3
100
AcDbLine
 10
638.3646922931721
 20
94.03270685891232
 30
0.0
 11
588.3646922931721
 21
82.03270685891231
 31
0.0
  0
LINE
  5
11A2
330
6B
100
AcDbEntity
  8
0
  6
Continuous
 62
     3
100
AcDbLine
 10
640.4650488654502
 20
73.28122114108764
 30
0.0
 11
590.4650488654502
 21
61.28122114108763
 31
0.0
  0
LINE
  5
11A3
330
6B
100
AcDbEntity
  8
0
  6
Continuous
 62
     3
100
AcDbLine
 10
638.3646922931721
 20
82.03270685891231
 30
0.0
 11
588.3646922931721
 21
70.03270685891232
 31
0.0
  0
LINE
  5
11A4
330
6B
100
AcDbEntity
  8
0
  6
Continuous
 62
     3
100
AcDbLine
 10
640.4650488654502
 20
61.28122114108763
 30
0.0
 11
590.4650488654502
 21
49.28122114108765
 31
0.0
  0
LINE
  5
11A5
330
6B
100
AcDbEntity
  8
0
  6
Continuous
 62
     3
100
AcDbLine
 10
638.3646922931721
 20
70.03270685891232
 30
0.0
 11
588.3646922931721
 21
58.03270685891233
 31
0.0
  0
LINE
  5
11A6
330
6B
100
AcDbEntity
  8
0
  6
Continuous
 62
     3
100
AcDbLine
 10
640.4650488654502
 20
49.28122114108765
 30
0.0
 11
590.4650488654502
 21
37.28122114108766
 31
0.0
  0
LINE
  5
11A7
330
6B
100
AcDbEntity
  8
0
  6
Continuous
 62
     3
100
AcDbLine
 10
638.3646922931721
 20
58.03270685891233
 30
0.0
 11
588.3646922931721
 21
46.03270685891232
 31
0.0
  0
LINE
  5
11A8
330
6B
100
AcDbEntity
  8
0
  6
Continuous
 62
     3
100
AcDbLine
 10
640.4650488654502
 20
37.28122114108766
 30
0.0
 11
637.8480058169347
 21
36.65313080944396
 31
0.0
  0
LINE
  5
11A9
330
6B
100
AcDbEntity
  8
0
  6
Continuous
 62
     3
100
AcDbLine
 10
638.3646922931721
 20
46.03270685891232
 30
0.0
 11
635.5142762921811
 21
45.34860701867447
 31
0.0
  0
LINE
  5
11AA
330
6B
100
AcDbEntity
  8
0
  6
Continuous
 62
     3
100
AcDbLine
 10
589.8646922931722
 20
96.92122114108764
 30
0.0
 11
595.1324303810373
 21
95.656964
 31
0.0
  0
LINE
  5
11AB
330
6B
100
AcDbEntity
  8
0
  6
Continuous
 62
     3
100
AcDbLine
 10
614.4148705793115
 20
91.02917835241433
 30
0.0
 11
620.1324303810373
 21
89.65696400000002
 31
0.0
  0
LINE
  5
11AC
330
6B
100
AcDbEntity
  8
0
  6
Continuous
 62
     3
100
AcDbLine
 10
633.6973107775852
 20
95.65696399999996
 30
0.0
 11
640.4650488654502
 21
94.03270685891232
 31
0.0
  0
LINE
  5
11AD
330
6B
100
AcDbEntity
  8
0
  6
Continuous
 62
     3
100
AcDbLine
 10
588.3646922931721
 20
85.28122114108766
 30
0.0
 11
595.1324303810373
 21
83.65696400000002
 31
0.0
  0
LINE
  5
11AE
330
6B
100
AcDbEntity
  8
0
  6
Continuous
 62
     3
100
AcDbLine
 10
614.4148705793115
 20
79.02917835241429
 30
0.0
 11
620.1324303810378
 21
77.65696400000002
 31
0.0
  0
LINE
  5
11AF
330
6B
100
AcDbEntity
  8
0
  6
Continuous
 62
     3
100
AcDbLine
 10
608.6973107775852
 20
89.65696400000002
 30
0.0
 11
614.4148705793115
 21
88.28474964758568
 31
0.0
  0
LINE
  5
11B0
330
6B
100
AcDbEntity
  8
0
  6
Continuous
 62
     3
100
AcDbLine
 10
633.6973107775852
 20
83.65696400000002
 30
0.0
 11
640.4650488654502
 21
82.03270685891231
 31
0.0
  0
LINE
  5
11B1
330
6B
100
AcDbEntity
  8
0
  6
Continuous
 62
     3
100
AcDbLine
 10
588.3646922931721
 20
73.28122114108764
 30
0.0
 11
595.1324303810378
 21
71.65696400000001
 31
0.0
  0
LINE
  5
11B2
330
6B
100
AcDbEntity
  8
0
  6
Continuous
 62
     3
100
AcDbLine
 10
614.4148705793115
 20
67.02917835241429
 30
0.0
 11
620.1324303810373
 21
65.65696399999999
 31
0.0
  0
LINE
  5
11B3
330
6B
100
AcDbEntity
  8
0
  6
Continuous
 62
     3
100
AcDbLine
 10
608.6973107775852
 20
77.65696400000002
 30
0.0
 11
614.4148705793115
 21
76.28474964758567
 31
0.0
  0
LINE
  5
11B4
330
6B
100
AcDbEntity
  8
0
  6
Continuous
 62
     3
100
AcDbLine
 10
633.6973107775852
 20
71.65696400000001
 30
0.0
 11
640.4650488654502
 21
70.03270685891232
 31
0.0
  0
LINE
  5
11B5
330
6B
100
AcDbEntity
  8
0
  6
Continuous
 62
     3
100
AcDbLine
 10
588.3646922931721
 20
61.28122114108763
 30
0.0
 11
595.1324303810378
 21
59.65696399999998
 31
0.0
  0
LINE
  5
11B6
330
6B
100
AcDbEntity
  8
0
  6
Continuous
 62
     3
100
AcDbLine
 10
614.4148705793115
 20
55.02917835241429
 30
0.0
 11
620.1324303810373
 21
53.65696399999999
 31
0.0
  0
LINE
  5
11B7
330
6B
100
AcDbEntity
  8
0
  6
Continuous
 62
     3
100
AcDbLine
 10
608.6973107775852
 20
65.65696400000001
 30
0.0
 11
614.4148705793115
 21
64.28474964758571
 31
0.0
  0
LINE
  5
11B8
330
6B
100
AcDbEntity
  8
0
  6
Continuous
 62
     3
100
AcDbLine
 10
633.6973107775852
 20
59.656964
 30
0.0
 11
640.4650488654502
 21
58.03270685891233
 31
0.0
  0
LINE
  5
11B9
330
6B
100
AcDbEntity
  8
0
  6
Continuous
 62
     3
100
AcDbLine
 10
588.3646922931721
 20
49.28122114108765
 30
0.0
 11
595.1324303810373
 21
47.65696399999997
 31
0.0
  0
LINE
  5
11BA
330
6B
100
AcDbEntity
  8
0
  6
Continuous
 62
     3
100
AcDbLine
 10
614.4148705793115
 20
43.02917835241427
 30
0.0
 11
627.1712716438757
 21
39.9676420969189
 31
0.0
  0
LINE
  5
11BB
330
6B
100
AcDbEntity
  8
0
  6
Continuous
 62
     3
100
AcDbLine
 10
608.6973107775852
 20
53.656964
 30
0.0
 11
614.4148705793115
 21
52.28474964758571
 31
0.0
  0
LINE
  5
11BC
330
6B
100
AcDbEntity
  8
0
  6
Continuous
 62
     3
100
AcDbLine
 10
633.6973107775852
 20
47.656964
 30
0.0
 11
640.4650488654502
 21
46.03270685891232
 31
0.0
  0
LINE
  5
11BD
330
6B
100
AcDbEntity
  8
0
  6
Continuous
 62
     3
100
AcDbLine
 10
588.3646922931721
 20
37.28122114108766
 30
0.0
 11
590.9817353416878
 21
36.65313080944396
 31
0.0
  0
ARC
  5
11BE
330
6B
100
AcDbEntity
  8
0
  6
Continuous
 62
     3
100
AcDbCircle
 10
590.9148705793113
 20
101.2969639999999
 30
0.0
 40
4.499999999999825
100
AcDbArc
 50
96.62429292944956
 51
276.6242929294479
  0
ARC
  5
11BF
330
6B
100
AcDbEntity
  8
0
  6
Continuous
 62
     3
100
AcDbCircle
 10
637.9148705793112
 20
101.296964
 30
0.0
 40
4.499999999999981
100
AcDbArc
 50
283.4957332807956
 51
103.4957332807956
  0
ARC
  5
11C0
330
6B
100
AcDbEntity
  8
0
  6
Continuous
 62
     3
100
AcDbCircle
 10
614.4148705793115
 20
-101.0561242352869
 30
0.0
 40
199.2130882352869
100
AcDbArc
 50
92.84538545650464
 51
96.62429292944793
  0
ARC
  5
11C1
330
6B
100
AcDbEntity
  8
0
  6
Continuous
 62
     3
100
AcDbCircle
 10
614.4148705793115
 20
-101.0561242352869
 30
0.0
 40
208.2130882352869
100
AcDbArc
 50
83.37570707055206
 51
96.62429292944793
  0
LINE
  5
11C2
330
6B
100
AcDbEntity
  8
0
  6
Continuous
 62
     3
100
AcDbLine
 10
591.4148705793116
 20
20.156964
 30
0.0
 11
637.4148705793113
 21
20.156964
 31
0.0
  0
LINE
  5
11C4
330
6B
100
AcDbEntity
  8
0
  6
Continuous
 62
     3
100
AcDbLine
 10
592.4148705793117
 20
22.656964
 30
0.0
 11
605.4148705793116
 21
22.656964
 31
0.0
  0
LINE
  5
11C5
330
6B
100
AcDbEntity
  8
0
  6
Continuous
 62
     3
100
AcDbLine
 10
623.4148705793114
 20
22.656964
 30
0.0
 11
636.4148705793117
 21
22.656964
 31
0.0
  0
LINE
  5
11C7
330
6B
100
AcDbEntity
  8
0
  6
Continuous
 62
     3
100
AcDbLine
 10
598.9148705793117
 20
-15.343036
 30
0.0
 11
629.9148705793116
 21
-15.343036
 31
0.0
  0
LINE
  5
11C8
330
6B
100
AcDbEntity
  8
0
  6
Continuous
 62
     3
100
AcDbLine
 10
590.4148705793114
 20
14.156964
 30
0.0
 11
590.4148705793114
 21
17.656964
 31
0.0
  0
LINE
  5
11C9
330
6B
100
AcDbEntity
  8
0
  6
Continuous
 62
     3
100
AcDbLine
 10
592.4148705793117
 20
22.656964
 30
0.0
 11
592.4148705793117
 21
20.156964
 31
0.0
  0
LINE
  5
11CA
330
6B
100
AcDbEntity
  8
0
  6
Continuous
 62
     3
100
AcDbLine
 10
605.4148705793116
 20
22.656964
 30
0.0
 11
605.4148705793116
 21
20.156964
 31
0.0
  0
LINE
  5
11CB
330
6B
100
AcDbEntity
  8
0
  6
Continuous
 62
     3
100
AcDbLine
 10
638.4148705793116
 20
14.156964
 30
0.0
 11
638.4148705793116
 21
17.656964
 31
0.0
  0
LINE
  5
11CC
330
6B
100
AcDbEntity
  8
0
  6
Continuous
 62
     3
100
AcDbLine
 10
636.4148705793117
 20
22.656964
 30
0.0
 11
636.4148705793117
 21
20.156964
 31
0.0
  0
LINE
  5
11CD
330
6B
100
AcDbEntity
  8
0
  6
Continuous
 62
     3
100
AcDbLine
 10
623.4148705793114
 20
22.656964
 30
0.0
 11
623.4148705793114
 21
20.156964
 31
0.0
  0
LINE
  5
11CE
330
6B
100
AcDbEntity
  8
0
100
AcDbLine
 10
619.9148705793117
 20
-40.63541839774351
 30
0.0
 11
621.9148705793116
 21
-36.84303600000003
 31
0.0
  0
ARC
  5
11CF
330
6B
100
AcDbEntity
  8
0
100
AcDbCircle
 10
626.1051693903985
 20
-33.35006473363913
 30
0.0
 40
1.309701188913185
100
AcDbArc
 50
270.0
 51
97.46279400000373
  0
ARC
  5
11D0
330
6B
100
AcDbEntity
  8
0
100
AcDbCircle
 10
626.1051693903985
 20
-28.11125864403133
 30
0.0
 40
1.309701188913185
100
AcDbArc
 50
270.0
 51
97.46279400000373
  0
ARC
  5
11D1
330
6B
100
AcDbEntity
  8
0
100
AcDbCircle
 10
628.0697211737685
 20
-30.73066102185766
 30
0.0
 40
1.964551783369778
100
AcDbArc
 50
126.8698979999915
 51
233.1301020000085
  0
ARC
  5
11D2
330
6B
100
AcDbEntity
  8
0
100
AcDbCircle
 10
628.0697211737685
 20
-25.49185626620491
 30
0.0
 40
1.964551783369778
100
AcDbArc
 50
126.8698979999915
 51
233.1301020000085
  0
ARC
  5
11D3
330
6B
100
AcDbEntity
  8
0
100
AcDbCircle
 10
626.1051693903985
 20
-22.87245388837852
 30
0.0
 40
1.309701188913185
100
AcDbArc
 50
270.0
 51
96.41232656605168
  0
LINE
  5
11D4
330
6B
100
AcDbEntity
  8
0
100
AcDbLine
 10
608.9148705793117
 20
-40.63541839774351
 30
0.0
 11
606.9148705793114
 21
-36.84303600000003
 31
0.0
  0
ARC
  5
11D5
330
6B
100
AcDbEntity
  8
0
100
AcDbCircle
 10
602.7245731021801
 20
-29.42095983294442
 30
0.0
 40
1.309701188913185
100
AcDbArc
 50
90.0
 51
277.4627940000037
  0
ARC
  5
11D6
330
6B
100
AcDbEntity
  8
0
100
AcDbCircle
 10
602.7245731021801
 20
-34.65976592255234
 30
0.0
 40
1.309701188913185
100
AcDbArc
 50
90.0
 51
290.8564800000042
  0
ARC
  5
11D7
330
6B
100
AcDbEntity
  8
0
100
AcDbCircle
 10
600.7600199848552
 20
-32.04036354472592
 30
0.0
 40
1.964551783369778
100
AcDbArc
 50
306.8698979999915
 51
53.13010200000849
  0
ARC
  5
11D8
330
6B
100
AcDbEntity
  8
0
100
AcDbCircle
 10
600.7600199848552
 20
-26.80155745511815
 30
0.0
 40
1.964551783369778
100
AcDbArc
 50
306.8698979999915
 51
53.13010200000849
  0
ARC
  5
11D9
330
6B
100
AcDbEntity
  8
0
100
AcDbCircle
 10
602.7245731021801
 20
-24.18215507729184
 30
0.0
 40
1.309701188913185
100
AcDbArc
 50
90.0
 51
277.4627940000037
  0
LINE
  5
11DA
330
6B
100
AcDbEntity
  8
0
100
AcDbLine
 10
623.1051693903983
 20
-36.84303600000003
 30
0.0
 11
605.7245731021804
 21
-36.84303600000003
 31
0.0
  0
ARC
  5
11DB
330
6B
100
AcDbEntity
  8
0
100
AcDbCircle
 10
614.4148705793115
 20
-28.7145670980764
 30
0.0
 40
13.1284689019236
100
AcDbArc
 50
245.2325125815905
 51
294.7674874184095
  0
LINE
  5
11DC
330
6B
100
AcDbEntity
  8
0
100
AcDbLine
 10
619.9148705793117
 20
-40.63541839774339
 30
0.0
 11
608.9148705793117
 21
-40.63541839774351
 31
0.0
  0
LINE
  5
11DD
330
6B
100
AcDbEntity
  8
0
100
AcDbLine
 10
602.4140283405452
 20
-35.93211770089411
 30
0.0
 11
626.1051693903985
 21
-34.65976592255234
 31
0.0
  0
LINE
  5
11DE
330
6B
100
AcDbEntity
  8
0
100
AcDbLine
 10
602.7245731021801
 20
-33.35006473363913
 30
0.0
 11
626.1051693903985
 21
-32.04036354472592
 31
0.0
  0
LINE
  5
11DF
330
6B
100
AcDbEntity
  8
0
100
AcDbLine
 10
602.7245731021801
 20
-30.73066102185766
 30
0.0
 11
626.1051693903985
 21
-29.42095983294442
 31
0.0
  0
LINE
  5
11E0
330
6B
100
AcDbEntity
  8
0
100
AcDbLine
 10
602.7245731021801
 20
-28.11125864403133
 30
0.0
 11
626.1051693903985
 21
-26.80155745511815
 31
0.0
  0
LINE
  5
11E1
330
6B
100
AcDbEntity
  8
0
100
AcDbLine
 10
602.7245731021801
 20
-25.49185626620491
 30
0.0
 11
626.1051693903985
 21
-24.18215507729184
 31
0.0
  0
LINE
  5
11E2
330
6B
100
AcDbEntity
  8
0
  6
Continuous
100
AcDbLine
 10
601.9148705793115
 20
-19.97276716077705
 30
0.0
 11
601.9148705793115
 21
-15.343036
 31
0.0
  0
LINE
  5
11E3
330
6B
100
AcDbEntity
  8
0
  6
Continuous
100
AcDbLine
 10
626.9148705793378
 20
-18.66306702108333
 30
0.0
 11
626.9148705793378
 21
-15.343036
 31
0.0
  0
LINE
  5
11E4
330
6B
100
AcDbEntity
  8
0
100
AcDbLine
 10
602.7245731021801
 20
-22.87245388837872
 30
0.0
 11
625.9588983887249
 21
-21.57094630164891
 31
0.0
  0
ARC
  5
11E5
330
6B
100
AcDbEntity
  8
0
  6
Continuous
100
AcDbCircle
 10
623.1051693903983
 20
-33.84303600000013
 30
0.0
 40
3.0
100
AcDbArc
 50
270.0
 51
344.0795009769849
  0
ARC
  5
11E6
330
6B
100
AcDbEntity
  8
0
  6
Continuous
100
AcDbCircle
 10
605.7245731021804
 20
-33.84303600000001
 30
0.0
 40
3.0
100
AcDbArc
 50
222.5816166691502
 51
270.0
  0
ARC
  5
11E7
330
6B
100
AcDbEntity
  8
0
100
AcDbCircle
 10
628.0697211737685
 20
-20.2530515105521
 30
0.0
 40
1.964551783369778
100
AcDbArc
 50
126.8698979999915
 51
233.1301020000085
  0
ARC
  5
11E8
330
6B
100
AcDbEntity
  8
0
100
AcDbCircle
 10
600.7600199848552
 20
-21.56275269946557
 30
0.0
 40
1.964551783369778
100
AcDbArc
 50
306.8698979999915
 51
53.13010200000849
  0
LINE
  5
11E9
330
6B
100
AcDbEntity
  8
0
100
AcDbLine
 10
602.7245731021801
 20
-20.25305151055233
 30
0.0
 11
626.1051693903985
 21
-18.94335032163926
 31
0.0
  0
ARC
  5
11EA
330
6B
100
AcDbEntity
  8
0
100
AcDbCircle
 10
626.1051693903985
 20
-17.63364913272571
 30
0.0
 40
1.309701188913185
100
AcDbArc
 50
270.0
 51
308.1872518973337
  0
ARC
  5
11EB
330
6B
100
AcDbEntity
  8
0
100
AcDbCircle
 10
602.7245731021801
 20
-18.94335032163903
 30
0.0
 40
1.309701188913185
100
AcDbArc
 50
231.8126738582343
 51
277.4627940000037
  0
LINE
  5
11EE
330
6B
100
AcDbEntity
  8
0
  6
Continuous
 62
     3
100
AcDbLine
 10
638.4148705793116
 20
14.656964
 30
0.0
 11
637.4092349019572
 21
-4.53170781765413
 31
0.0
  0
LINE
  5
11EF
330
6B
100
AcDbEntity
  8
0
  6
Continuous
 62
     3
100
AcDbLine
 10
590.4148705793114
 20
14.656964
 30
0.0
 11
591.4205062566659
 21
-4.531707817654236
 31
0.0
  0
ARC
  5
11F0
330
6B
100
AcDbEntity
  8
0
  6
Continuous
 62
     3
100
AcDbCircle
 10
635.9148705793114
 20
-15.34303599999987
 30
0.0
 40
6.0
100
AcDbArc
 50
112.0109885128317
 51
180.0000000000012
  0
ARC
  5
11F1
330
6B
100
AcDbEntity
  8
0
  6
Continuous
 62
     3
100
AcDbCircle
 10
631.4174576934297
 20
-4.217692080196477
 30
0.0
 40
6.0
100
AcDbArc
 50
292.0109885128318
 51
357.0000000000003
  0
ARC
  5
11F2
330
6B
100
AcDbEntity
  8
0
  6
Continuous
 62
     3
100
AcDbCircle
 10
592.9148705793116
 20
-15.34303599999993
 30
0.0
 40
6.0
100
AcDbArc
 50
359.9999999999992
 51
67.98901148716821
  0
ARC
  5
11F3
330
6B
100
AcDbEntity
  8
0
  6
Continuous
 62
     3
100
AcDbCircle
 10
597.4122834651932
 20
-4.217692080196576
 30
0.0
 40
6.0
100
AcDbArc
 50
182.9999999999997
 51
247.9890114871682
  0
LINE
  5
1261
330
6B
100
AcDbEntity
  8
0
  6
Continuous
 62
     3
100
AcDbLine
 10
590.4148705793114
 20
14.156964
 30
0.0
 11
638.4148705793116
 21
14.156964
 31
0.0
  0
LINE
  5
1262
330
6B
100
AcDbEntity
  8
0
  6
Continuous
 62
     7
100
AcDbLine
 10
590.4148705793114
 20
17.656964
 30
0.0
 11
638.4148705793116
 21
17.656964
 31
0.0
  0
ARC
  5
1275
330
6B
100
AcDbEntity
  8
0
  6
Continuous
 62
     3
100
AcDbCircle
 10
641.0398705793109
 20
20.156964
 30
0.0
 40
3.624999999999423
100
AcDbArc
 50
180.0000000000084
 51
223.6028189727042
  0
ARC
  5
1276
330
6B
100
AcDbEntity
  8
0
  6
Continuous
 62
     3
100
AcDbCircle
 10
587.7898705793122
 20
20.156964
 30
0.0
 40
3.624999999999423
100
AcDbArc
 50
316.3971810272935
 51
359.9999999999916
  0
TEXT
  5
129F
330
6B
100
AcDbEntity
  8
0
 62
     3
100
AcDbText
 10
655.3541585284269
 20
141.2354188989682
 30
0.0
 40
2.0
  1
4
  7
高2
100
AcDbText
  0
LINE
  5
12A0
330
6B
100
AcDbEntity
  8
0
 62
     3
100
AcDbLine
 10
734.7919225391287
 20
140.3998509999998
 30
0.0
 11
651.191922539129
 21
140.3998509999995
 31
0.0
  0
LINE
  5
12A1
330
6B
100
AcDbEntity
  8
0
 62
     7
100
AcDbLine
 10
656.009627539129
 20
144.4043949999997
 30
0.0
 11
654.1096275391287
 21
141.1134989999997
 31
0.0
  0
LINE
  5
12A2
330
6B
100
AcDbEntity
  8
0
 62
     7
100
AcDbLine
 10
656.009627539129
 20
144.4043949999997
 30
0.0
 11
657.909627539129
 21
141.1134989999997
 31
0.0
  0
LINE
  5
12A3
330
6B
100
AcDbEntity
  8
0
 62
     7
100
AcDbLine
 10
654.1096275391287
 20
141.1134989999997
 30
0.0
 11
657.909627539129
 21
141.1134989999997
 31
0.0
  0
TEXT
  5
12A4
330
6B
100
AcDbEntity
  8
0
  6
Continuous
100
AcDbText
 10
662.7973565391287
 20
140.8998509999995
 30
0.0
 40
2.5
  1
15.02.05
  7
高2.5
100
AcDbText
  0
TEXT
  5
12A5
330
6B
100
AcDbEntity
  8
0
  6
Continuous
100
AcDbText
 10
724.6943975391289
 20
140.8998509999998
 30
0.0
 40
2.5
  1
今村
  7
高2.5
100
AcDbText
  0
TEXT
  5
12A6
330
6B
100
AcDbEntity
  8
0
  6
Continuous
100
AcDbText
 10
680.4026825391287
 20
140.8998509999996
 30
0.0
 40
2.5
  1
形状および仕様変更
  7
高2.5
100
AcDbText
  0
LINE
  5
1349
330
6B
100
AcDbEntity
  8
0
 62
     7
100
AcDbLine
 10
654.6631730664565
 20
-0.5940668234142095
 30
0.0
 11
718.6760991036658
 21
-0.5940668234142095
 31
0.0
  0
LINE
  5
134B
330
6B
100
AcDbEntity
  8
0
 62
     7
100
AcDbLine
 10
654.6631730664568
 20
4.905933176585789
 30
0.0
 11
718.6760991036659
 21
4.905933176585789
 31
0.0
  0
LINE
  5
134D
330
6B
100
AcDbEntity
  8
0
 62
     7
100
AcDbLine
 10
665.0541635361252
 20
10.40593317658579
 30
0.0
 11
718.6760991036659
 21
10.40593317658579
 31
0.0
  0
LINE
  5
134E
330
6B
100
AcDbEntity
  8
0
 62
     7
100
AcDbLine
 10
665.0541635361252
 20
15.90593317658579
 30
0.0
 11
718.6760991036659
 21
15.90593317658579
 31
0.0
  0
LINE
  5
134F
330
6B
100
AcDbEntity
  8
0
 62
     7
100
AcDbLine
 10
665.0541635361252
 20
21.40593317658579
 30
0.0
 11
718.6760991036659
 21
21.40593317658579
 31
0.0
  0
LINE
  5
1350
330
6B
100
AcDbEntity
  8
0
 62
     7
100
AcDbLine
 10
665.0541635361252
 20
26.90593317658579
 30
0.0
 11
718.6760991036659
 21
26.90593317658579
 31
0.0
  0
LINE
  5
1351
330
6B
100
AcDbEntity
  8
0
 62
     7
100
AcDbLine
 10
654.6631730664568
 20
32.40593317658579
 30
0.0
 11
718.6760991036659
 21
32.40593317658579
 31
0.0
  0
LINE
  5
1353
330
6B
100
AcDbEntity
  8
0
 62
     7
100
AcDbLine
 10
654.6631730664568
 20
37.90593317658579
 30
0.0
 11
718.6760991036659
 21
37.90593317658579
 31
0.0
  0
LINE
  5
1354
330
6B
100
AcDbEntity
  8
0
 62
     7
100
AcDbLine
 10
654.6631730664568
 20
43.40593317658579
 30
0.0
 11
718.6760991036659
 21
43.40593317658579
 31
0.0
  0
LINE
  5
1355
330
6B
100
AcDbEntity
  8
0
 62
     7
100
AcDbLine
 10
654.6631730664568
 20
48.90593317658579
 30
0.0
 11
718.6760991036659
 21
48.90593317658579
 31
0.0
  0
LINE
  5
1356
330
6B
100
AcDbEntity
  8
0
 62
     7
100
AcDbLine
 10
654.6631730664568
 20
54.40593317658579
 30
0.0
 11
718.6760991036659
 21
54.40593317658579
 31
0.0
  0
LINE
  5
1357
330
6B
100
AcDbEntity
  8
0
 62
     7
100
AcDbLine
 10
654.6631730664568
 20
59.90593317658579
 30
0.0
 11
718.6760991036659
 21
59.90593317658579
 31
0.0
  0
TEXT
  5
1359
330
6B
100
AcDbEntity
  8
0
 62
     3
100
AcDbText
 10
681.0912686392202
 20
-5.094066823414208
 30
0.0
 40
3.2
  1
81g
  7
高3.2
100
AcDbText
  0
TEXT
  5
135A
330
6B
100
AcDbEntity
  8
0
 62
     3
100
AcDbText
 10
656.1631730664568
 20
-5.094066823414208
 30
0.0
 40
3.2
  1
質　　　量
  7
高3.2
100
AcDbText
  0
TEXT
  5
135B
330
6B
100
AcDbEntity
  8
0
 62
     3
100
AcDbText
 10
656.1631730664568
 20
0.4059331765857907
 30
0.0
 40
3.2
  1
球　寿　命
  7
高3.2
100
AcDbText
  0
TEXT
  5
135F
330
6B
100
AcDbEntity
  8
0
 62
     3
100
AcDbText
 10
656.1631730664568
 20
33.40593317658579
 30
0.0
 40
3.2
  1
定格消費電力
  7
高3.2
100
AcDbText
  0
TEXT
  5
1360
330
6B
100
AcDbEntity
  8
0
 62
     3
100
AcDbText
 10
656.1631730664568
 20
38.90593317658579
 30
0.0
 40
3.2
  1
定格　電流
  7
高3.2
100
AcDbText
  0
TEXT
  5
1361
330
6B
100
AcDbEntity
  8
0
 62
     3
100
AcDbText
 10
656.1631730664568
 20
44.40593317658579
 30
0.0
 40
3.2
  1
入力電圧範囲
 41
0.9
  7
高3.2
100
AcDbText
  0
TEXT
  5
1362
330
6B
100
AcDbEntity
  8
0
 62
     3
100
AcDbText
 10
656.1631730664568
 20
49.90593317658579
 30
0.0
 40
3.2
  1
周　波　数
  7
高3.2
100
AcDbText
  0
TEXT
  5
1363
330
6B
100
AcDbEntity
  8
0
 62
     3
100
AcDbText
 10
656.1631730664568
 20
55.40593317658579
 30
0.0
 40
3.2
  1
定格　電圧
  7
高3.2
100
AcDbText
  0
TEXT
  5
1365
330
6B
100
AcDbEntity
  8
0
 62
     3
100
AcDbText
 10
656.1631730664568
 20
60.90593317658579
 30
0.0
 40
3.2
  1
色　温　度
  7
高3.2
100
AcDbText
  0
TEXT
  5
1366
330
6B
100
AcDbEntity
  8
0
 62
     3
100
AcDbText
 10
656.1631730664568
 20
66.40593317658579
 30
0.0
 40
3.2
  1
定格　光束
  7
高3.2
100
AcDbText
  0
TEXT
  5
136A
330
6B
100
AcDbEntity
  8
0
 62
     3
100
AcDbText
 10
656.1631730664568
 20
27.90593317658579
 30
0.0
 40
3.2
  1
照度
  7
高3.2
100
AcDbText
  0
LINE
  5
136C
330
6B
100
AcDbEntity
  8
0
 62
     7
100
AcDbLine
 10
654.6631730664568
 20
65.40593317658579
 30
0.0
 11
718.6760991036659
 21
65.40593317658579
 31
0.0
  0
LINE
  5
136D
330
6B
100
AcDbEntity
  8
0
 62
     7
100
AcDbLine
 10
654.6631730664568
 20
70.9059331765858
 30
0.0
 11
718.6760991036659
 21
70.9059331765858
 31
0.0
  0
LINE
  5
136E
330
6B
100
AcDbEntity
  8
0
 62
     7
100
AcDbLine
 10
654.6631730664564
 20
76.40593317658581
 30
0.0
 11
718.6760991036654
 21
76.40593317658581
 31
0.0
  0
LINE
  5
1372
330
6B
100
AcDbEntity
  8
0
100
AcDbLine
 10
665.0541635361252
 20
32.40593317658579
 30
0.0
 11
665.0541635361252
 21
4.905933176585789
 31
0.0
  0
TEXT
  5
1373
330
6B
100
AcDbEntity
  8
0
 62
     3
100
AcDbText
 10
666.554163536125
 20
27.90593317658579
 30
0.0
 40
3.2
  1
1m
  7
高3.2
100
AcDbText
  0
TEXT
  5
1374
330
6B
100
AcDbEntity
  8
0
 62
     3
100
AcDbText
 10
666.554163536125
 20
22.40593317658579
 30
0.0
 40
3.2
  1
2m
  7
高3.2
100
AcDbText
  0
TEXT
  5
1375
330
6B
100
AcDbEntity
  8
0
 62
     3
100
AcDbText
 10
666.554163536125
 20
16.90593317658579
 30
0.0
 40
3.2
  1
3m
  7
高3.2
100
AcDbText
  0
TEXT
  5
1376
330
6B
100
AcDbEntity
  8
0
 62
     3
100
AcDbText
 10
666.554163536125
 20
11.40593317658579
 30
0.0
 40
3.2
  1
4m
  7
高3.2
100
AcDbText
  0
TEXT
  5
1377
330
6B
100
AcDbEntity
  8
0
 62
     3
100
AcDbText
 10
666.554163536125
 20
5.905933176585789
 30
0.0
 40
3.2
  1
5m
  7
高3.2
100
AcDbText
  0
LINE
  5
1378
330
6B
100
AcDbEntity
  8
0
 62
     3
100
AcDbLine
 10
654.6631730664565
 20
-6.094066823414208
 30
0.0
 11
718.6760991036658
 21
-6.094066823414208
 31
0.0
  0
TEXT
  5
137C
330
6B
100
AcDbEntity
  8
0
 62
     3
100
AcDbText
 10
681.0912686392204
 20
66.40593317658579
 30
0.0
 40
3.2
  1
1550Lm
  7
高3.2
100
AcDbText
  0
TEXT
  5
137D
330
6B
100
AcDbEntity
  8
0
 62
     3
100
AcDbText
 10
681.0912686392204
 20
60.90593317658579
 30
0.0
 40
3.2
  1
6500K
  7
高3.2
100
AcDbText
  0
TEXT
  5
1380
330
6B
100
AcDbEntity
  8
0
 62
     3
100
AcDbText
 10
681.0912686392204
 20
55.40593317658579
 30
0.0
 40
3.2
  1
AC100V
  7
高3.2
100
AcDbText
  0
TEXT
  5
1381
330
6B
100
AcDbEntity
  8
0
 62
     3
100
AcDbText
 10
681.0912686392204
 20
49.90593317658579
 30
0.0
 40
3.2
  1
50/60Hz
  7
高3.2
100
AcDbText
  0
TEXT
  5
1382
330
6B
100
AcDbEntity
  8
0
 62
     3
100
AcDbText
 10
681.0912686392204
 20
44.40593317658579
 30
0.0
 40
3.2
  1
AC90～110V
  7
高3.2
100
AcDbText
  0
TEXT
  5
1383
330
6B
100
AcDbEntity
  8
0
 62
     3
100
AcDbText
 10
681.0912686392204
 20
38.90593317658579
 30
0.0
 40
3.2
  1
0.44A
  7
高3.2
100
AcDbText
  0
TEXT
  5
1384
330
6B
100
AcDbEntity
  8
0
 62
     3
100
AcDbText
 10
681.0912686392204
 20
33.40593317658579
 30
0.0
 40
3.2
  1
25.4W
  7
高3.2
100
AcDbText
  0
TEXT
  5
1386
330
6B
100
AcDbEntity
  8
0
 62
     3
100
AcDbText
 10
681.0912686392204
 20
27.90593317658579
 30
0.0
 40
3.2
  1
上:95／横:128Lx
  7
高3.2
100
AcDbText
  0
TEXT
  5
1387
330
6B
100
AcDbEntity
  8
0
 62
     3
100
AcDbText
 10
681.0912686392204
 20
22.40593317658579
 30
0.0
 40
3.2
  1
上:26／横:36Lx
  7
高3.2
100
AcDbText
  0
TEXT
  5
1388
330
6B
100
AcDbEntity
  8
0
 62
     3
100
AcDbText
 10
681.0912686392204
 20
16.90593317658579
 30
0.0
 40
3.2
  1
上:13／横:17Lx
  7
高3.2
100
AcDbText
  0
TEXT
  5
1389
330
6B
100
AcDbEntity
  8
0
 62
     3
100
AcDbText
 10
681.0912686392204
 20
11.40593317658579
 30
0.0
 40
3.2
  1
上:7／横:10Lx
  7
高3.2
100
AcDbText
  0
TEXT
  5
138A
330
6B
100
AcDbEntity
  8
0
 62
     3
100
AcDbText
 10
681.0912686392204
 20
5.905933176585789
 30
0.0
 40
3.2
  1
上:5／横:7Lx
  7
高3.2
100
AcDbText
  0
TEXT
  5
138C
330
6B
100
AcDbEntity
  8
0
 62
     3
100
AcDbText
 10
681.0912686392204
 20
0.4059331765857907
 30
0.0
 40
3.2
  1
約8000H
  7
高3.2
100
AcDbText
  0
LINE
  5
138E
330
6B
100
AcDbEntity
  8
0
 62
     3
100
AcDbLine
 10
654.6631730664564
 20
81.9059331765858
 30
0.0
 11
654.6631730664565
 21
-6.094066823414208
 31
0.0
  0
LINE
  5
138F
330
6B
100
AcDbEntity
  8
0
 62
     7
100
AcDbLine
 10
679.5912686392203
 20
-6.094066823414208
 30
0.0
 11
679.59126863922
 21
81.9059331765858
 31
0.0
  0
LINE
  5
1390
330
6B
100
AcDbEntity
  8
0
 62
     3
100
AcDbLine
 10
718.6760991036658
 20
-6.094066823414208
 30
0.0
 11
718.6760991036659
 21
81.9059331765858
 31
0.0
  0
TEXT
  5
1391
330
6B
100
AcDbEntity
  8
0
 62
     3
100
AcDbText
 10
667.5383953812562
 20
86.63974505361569
 30
0.0
 40
4.5
  1
主　　仕　　様
  7
高4.5
100
AcDbText
  0
LINE
  5
1392
330
6B
100
AcDbEntity
  8
0
100
AcDbLine
 10
666.4374810135007
 20
85.77399196977294
 30
0.0
 11
705.029701293188
 21
85.77399196977294
 31
0.0
  0
TEXT
  5
1393
330
6B
100
AcDbEntity
  8
0
 62
     7
100
AcDbText
 10
653.5332627303787
 20
-10.12753039581798
 30
0.0
 40
2.0
  1
注１）照度は当社実測値の為、使用環境下により異なります。
  7
高2
100
AcDbText
  0
TEXT
  5
1394
330
6B
100
AcDbEntity
  8
0
 62
     7
100
AcDbText
 10
653.5332627303787
 20
-13.12753039581798
 30
0.0
 40
2.0
  1
注２）球寿命は光束が70%%%に低下するまでの時間です。
  7
高2
100
AcDbText
  0
TEXT
  5
1395
330
6B
100
AcDbEntity
  8
0
 62
     7
100
AcDbText
 10
653.5332627303787
 20
-16.12753039581798
 30
0.0
 40
2.0
  1
　　　表示は設計値であり、製品の寿命を保証するものではありません。
  7
高2
100
AcDbText
  0
TEXT
  5
1399
330
6B
100
AcDbEntity
  8
0
 62
     7
100
AcDbText
 10
653.5332627303787
 20
-19.12753039581798
 30
0.0
 40
2.0
  1
注３）安全にご使用いただくため、パッケージをご参照ください。
  7
高2
100
AcDbText
  0
TEXT
  5
139B
330
6B
100
AcDbEntity
  8
0
 62
     3
100
AcDbText
 10
656.1631730664563
 20
77.4059331765858
 30
0.0
 40
3.2
  1
型　　　式
  7
高3.2
100
AcDbText
  0
LINE
  5
139C
330
6B
100
AcDbEntity
  8
0
 62
     3
100
AcDbLine
 10
654.6631730664564
 20
81.9059331765858
 30
0.0
 11
718.6760991036654
 21
81.9059331765858
 31
0.0
  0
TEXT
  5
139D
330
6B
100
AcDbEntity
  8
0
 62
     3
100
AcDbText
 10
681.09126863922
 20
77.4059331765858
 30
0.0
 40
3.2
  1
F27W-T
  7
高3.2
100
AcDbText
  0
TEXT
  5
139E
330
6B
100
AcDbEntity
  8
0
 62
     7
100
AcDbText
 10
653.5332627303787
 20
-22.12753039581798
 30
0.0
 40
2.0
  1
注４）仕様変更は予告なく行う場合があります。予めご了承ください。
  7
高2
100
AcDbText
  0
TEXT
  5
139F
330
6B
100
AcDbEntity
  8
0
 62
     3
100
AcDbText
 10
656.1631730664563
 20
71.90593317658581
 30
0.0
 40
3.2
  1
口金サイズ
  7
高3.2
100
AcDbText
  0
TEXT
  5
13A1
330
6B
100
AcDbEntity
  8
0
 62
     3
100
AcDbText
 10
681.09126863922
 20
71.90593317658581
 30
0.0
 40
3.2
  1
E26
  7
高3.2
100
AcDbText
  0
LINE
  5
14DB
330
6B
100
AcDbEntity
  8
0
  6
Continuous
100
AcDbLine
 10
638.4148705793116
 20
13.906964
 30
0.0
 11
638.4148705793116
 21
-55.28871264971574
 31
0.0
  0
LINE
  5
14DC
330
6B
100
AcDbEntity
  8
0
  6
Continuous
100
AcDbLine
 10
590.4148705793114
 20
13.906964
 30
0.0
 11
590.4148705793114
 21
-55.28871264971574
 31
0.0
  0
LINE
  5
14DD
330
6B
100
AcDbEntity
  8
0
  6
Continuous
100
AcDbLine
 10
635.9148705793115
 20
-54.03871264971575
 30
0.0
 11
592.9148705793115
 21
-54.03871264971575
 31
0.0
  0
LINE
  5
14E1
330
6B
100
AcDbEntity
  8
0
  6
Continuous
100
AcDbLine
 10
591.1648705793115
 20
20.156964
 30
0.0
 11
568.2352973707098
 21
20.15696400000001
 31
0.0
  0
LINE
  5
14E2
330
6B
100
AcDbEntity
  8
0
  6
Continuous
100
AcDbLine
 10
614.1648705793114
 20
-41.84303599999998
 30
0.0
 11
568.2352973707098
 21
-41.84303599999997
 31
0.0
  0
LINE
  5
14E3
330
6B
100
AcDbEntity
  8
0
  6
Continuous
100
AcDbLine
 10
569.4852973707098
 20
17.656964
 30
0.0
 11
569.4852973707098
 21
-39.34303599999997
 31
0.0
  0
LINE
  5
14E7
330
6B
100
AcDbEntity
  8
0
100
AcDbLine
 10
601.4725205793112
 20
-34.15557100000001
 30
0.0
 11
601.4725205793112
 21
-50.071878
 31
0.0
  0
LINE
  5
14E8
330
6B
100
AcDbEntity
  8
0
100
AcDbLine
 10
627.4148705793114
 20
-34.093035
 30
0.0
 11
627.4148705793114
 21
-50.071878
 31
0.0
  0
LINE
  5
14E9
330
6B
100
AcDbEntity
  8
0
100
AcDbLine
 10
603.9725205793112
 20
-48.821878
 30
0.0
 11
624.9148705793114
 21
-48.821878
 31
0.0
  0
LINE
  5
14ED
330
6B
100
AcDbEntity
  8
0
100
AcDbLine
 10
598.6648705793117
 20
-15.34303600000002
 30
0.0
 11
575.1262830306956
 21
-15.34303600000001
 31
0.0
  0
LINE
  5
14EE
330
6B
100
AcDbEntity
  8
0
100
AcDbLine
 10
591.1648705793115
 20
20.156964
 30
0.0
 11
575.1262830306956
 21
20.15696400000001
 31
0.0
  0
LINE
  5
14EF
330
6B
100
AcDbEntity
  8
0
100
AcDbLine
 10
576.3762830306956
 20
-12.84303600000001
 30
0.0
 11
576.3762830306956
 21
17.656964
 31
0.0
  0
LINE
  5
14F3
330
6B
100
AcDbEntity
  8
0
100
AcDbLine
 10
614.1648705793114
 20
-41.84303599999998
 30
0.0
 11
561.7118098296928
 21
-41.84303599999997
 31
0.0
  0
LINE
  5
14F4
330
6B
100
AcDbEntity
  8
0
100
AcDbLine
 10
614.1648705793114
 20
107.156964
 30
0.0
 11
561.7118098296928
 21
107.156964
 31
0.0
  0
LINE
  5
14F5
330
6B
100
AcDbEntity
  8
0
100
AcDbLine
 10
562.9618098296928
 20
-39.34303599999997
 30
0.0
 11
562.9618098296928
 21
104.656964
 31
0.0
  0
LINE
  5
14F9
330
6B
100
AcDbEntity
  8
0
  6
Continuous
100
AcDbLine
 10
643.9148705793114
 20
88.90696400000001
 30
0.0
 11
643.9148705793114
 21
123.7495344348733
 31
0.0
  0
LINE
  5
14FA
330
6B
100
AcDbEntity
  8
0
  6
Continuous
100
AcDbLine
 10
584.9148705793115
 20
88.90696400000001
 30
0.0
 11
584.9148705793115
 21
123.7495344348733
 31
0.0
  0
LINE
  5
14FB
330
6B
100
AcDbEntity
  8
0
  6
Continuous
100
AcDbLine
 10
641.4148705793114
 20
122.4995344348733
 30
0.0
 11
587.4148705793114
 21
122.4995344348733
 31
0.0
  0
LINE
  5
14FF
330
6B
100
AcDbEntity
  8
0
 62
     2
100
AcDbLine
 10
630.6148905391287
 20
170.1131229999999
 30
0.0
 11
630.5962625391289
 21
170.23239
 31
0.0
  0
LINE
  5
1500
330
6B
100
AcDbEntity
  8
0
 62
     2
100
AcDbLine
 10
630.5962625391289
 20
170.23239
 30
0.0
 11
630.5738915391287
 21
170.346595
 31
0.0
  0
LINE
  5
1501
330
6B
100
AcDbEntity
  8
0
 62
     2
100
AcDbLine
 10
630.5738915391287
 20
170.346595
 30
0.0
 11
630.5479495391287
 21
170.454854
 31
0.0
  0
LINE
  5
1502
330
6B
100
AcDbEntity
  8
0
 62
     2
100
AcDbLine
 10
630.5479495391287
 20
170.454854
 30
0.0
 11
630.518637539129
 21
170.556331
 31
0.0
  0
LINE
  5
1503
330
6B
100
AcDbEntity
  8
0
 62
     2
100
AcDbLine
 10
630.518637539129
 20
170.556331
 30
0.0
 11
630.4861815391289
 21
170.65024
 31
0.0
  0
LINE
  5
1504
330
6B
100
AcDbEntity
  8
0
 62
     2
100
AcDbLine
 10
630.4861815391289
 20
170.65024
 30
0.0
 11
630.450833539129
 21
170.735857
 31
0.0
  0
LINE
  5
1505
330
6B
100
AcDbEntity
  8
0
 62
     2
100
AcDbLine
 10
630.450833539129
 20
170.735857
 30
0.0
 11
630.4128655391289
 21
170.81252
 31
0.0
  0
LINE
  5
1506
330
6B
100
AcDbEntity
  8
0
 62
     2
100
AcDbLine
 10
630.4128655391289
 20
170.81252
 30
0.0
 11
630.3725705391289
 21
170.879635
 31
0.0
  0
LINE
  5
1507
330
6B
100
AcDbEntity
  8
0
 62
     2
100
AcDbLine
 10
630.3725705391289
 20
170.879635
 30
0.0
 11
630.3302615391287
 21
170.936685
 31
0.0
  0
LINE
  5
1508
330
6B
100
AcDbEntity
  8
0
 62
     2
100
AcDbLine
 10
630.3302615391287
 20
170.936685
 30
0.0
 11
630.2862655391287
 21
170.983227
 31
0.0
  0
LINE
  5
1509
330
6B
100
AcDbEntity
  8
0
 62
     2
100
AcDbLine
 10
630.2862655391287
 20
170.983227
 30
0.0
 11
630.2409215391287
 21
171.018903
 31
0.0
  0
LINE
  5
150A
330
6B
100
AcDbEntity
  8
0
 62
     2
100
AcDbLine
 10
630.2409215391287
 20
171.018903
 30
0.0
 11
630.194580539129
 21
171.043437
 31
0.0
  0
LINE
  5
150B
330
6B
100
AcDbEntity
  8
0
 62
     2
100
AcDbLine
 10
630.194580539129
 20
171.043437
 30
0.0
 11
630.1476005391289
 21
171.056639
 31
0.0
  0
LINE
  5
150C
330
6B
100
AcDbEntity
  8
0
 62
     2
100
AcDbLine
 10
630.1476005391289
 20
171.056639
 30
0.0
 11
630.1003445391287
 21
171.058407
 31
0.0
  0
LINE
  5
150D
330
6B
100
AcDbEntity
  8
0
 62
     2
100
AcDbLine
 10
630.1003445391287
 20
171.058407
 30
0.0
 11
630.053178539129
 21
171.0487269999999
 31
0.0
  0
LINE
  5
150E
330
6B
100
AcDbEntity
  8
0
 62
     2
100
AcDbLine
 10
630.053178539129
 20
171.0487269999999
 30
0.0
 11
630.0064665391287
 21
171.027674
 31
0.0
  0
LINE
  5
150F
330
6B
100
AcDbEntity
  8
0
 62
     2
100
AcDbLine
 10
630.0064665391287
 20
171.027674
 30
0.0
 11
629.960569539129
 21
170.995412
 31
0.0
  0
LINE
  5
1510
330
6B
100
AcDbEntity
  8
0
 62
     2
100
AcDbLine
 10
629.960569539129
 20
170.995412
 30
0.0
 11
629.915842539129
 21
170.952188
 31
0.0
  0
LINE
  5
1511
330
6B
100
AcDbEntity
  8
0
 62
     2
100
AcDbLine
 10
629.915842539129
 20
170.952188
 30
0.0
 11
629.872631539129
 21
170.8983379999999
 31
0.0
  0
LINE
  5
1512
330
6B
100
AcDbEntity
  8
0
 62
     2
100
AcDbLine
 10
629.872631539129
 20
170.8983379999999
 30
0.0
 11
629.8312695391289
 21
170.834277
 31
0.0
  0
LINE
  5
1513
330
6B
100
AcDbEntity
  8
0
 62
     2
100
AcDbLine
 10
629.8312695391289
 20
170.834277
 30
0.0
 11
629.7920775391292
 21
170.7605019999999
 31
0.0
  0
LINE
  5
1514
330
6B
100
AcDbEntity
  8
0
 62
     2
100
AcDbLine
 10
629.7920775391292
 20
170.7605019999999
 30
0.0
 11
629.7553575391289
 21
170.677581
 31
0.0
  0
LINE
  5
1515
330
6B
100
AcDbEntity
  8
0
 62
     2
100
AcDbLine
 10
629.7553575391289
 20
170.677581
 30
0.0
 11
629.7213935391287
 21
170.586156
 31
0.0
  0
LINE
  5
1516
330
6B
100
AcDbEntity
  8
0
 62
     2
100
AcDbLine
 10
629.7213935391287
 20
170.586156
 30
0.0
 11
629.6904485391287
 21
170.486934
 31
0.0
  0
LINE
  5
1517
330
6B
100
AcDbEntity
  8
0
 62
     2
100
AcDbLine
 10
629.6904485391287
 20
170.486934
 30
0.0
 11
629.6627605391287
 21
170.380681
 31
0.0
  0
LINE
  5
1518
330
6B
100
AcDbEntity
  8
0
 62
     2
100
AcDbLine
 10
629.6627605391287
 20
170.380681
 30
0.0
 11
629.6385455391289
 21
170.268219
 31
0.0
  0
LINE
  5
1519
330
6B
100
AcDbEntity
  8
0
 62
     2
100
AcDbLine
 10
629.6385455391289
 20
170.268219
 30
0.0
 11
629.6179885391287
 21
170.150417
 31
0.0
  0
LINE
  5
151A
330
6B
100
AcDbEntity
  8
0
 62
     2
100
AcDbLine
 10
629.6179885391287
 20
170.150417
 30
0.0
 11
629.6012495391287
 21
170.028186
 31
0.0
  0
LINE
  5
151B
330
6B
100
AcDbEntity
  8
0
 62
     2
100
AcDbLine
 10
629.6012495391287
 20
170.028186
 30
0.0
 11
629.5884585391291
 21
169.90247
 31
0.0
  0
LINE
  5
151C
330
6B
100
AcDbEntity
  8
0
 62
     2
100
AcDbLine
 10
629.5884585391291
 20
169.90247
 30
0.0
 11
629.5797135391287
 21
169.7742409999999
 31
0.0
  0
LINE
  5
151D
330
6B
100
AcDbEntity
  8
0
 62
     2
100
AcDbLine
 10
629.5797135391287
 20
169.7742409999999
 30
0.0
 11
629.5750815391287
 21
169.644491
 31
0.0
  0
LINE
  5
151E
330
6B
100
AcDbEntity
  8
0
 62
     2
100
AcDbLine
 10
629.5750815391287
 20
169.644491
 30
0.0
 11
629.5745995391285
 21
169.514222
 31
0.0
  0
LINE
  5
151F
330
6B
100
AcDbEntity
  8
0
 62
     2
100
AcDbLine
 10
629.5745995391285
 20
169.514222
 30
0.0
 11
629.578270539129
 21
169.38444
 31
0.0
  0
LINE
  5
1520
330
6B
100
AcDbEntity
  8
0
 62
     2
100
AcDbLine
 10
629.578270539129
 20
169.38444
 30
0.0
 11
629.5860665391288
 21
169.256151
 31
0.0
  0
LINE
  5
1521
330
6B
100
AcDbEntity
  8
0
 62
     2
100
AcDbLine
 10
629.5860665391288
 20
169.256151
 30
0.0
 11
629.5979275391289
 21
169.130344
 31
0.0
  0
LINE
  5
1522
330
6B
100
AcDbEntity
  8
0
 62
     2
100
AcDbLine
 10
629.5979275391289
 20
169.130344
 30
0.0
 11
629.6137615391288
 21
169.007992
 31
0.0
  0
LINE
  5
1523
330
6B
100
AcDbEntity
  8
0
 62
     2
100
AcDbLine
 10
629.6137615391288
 20
169.007992
 30
0.0
 11
629.6334455391287
 21
168.890041
 31
0.0
  0
LINE
  5
1524
330
6B
100
AcDbEntity
  8
0
 62
     2
100
AcDbLine
 10
629.6334455391287
 20
168.890041
 30
0.0
 11
629.656828539129
 21
168.777403
 31
0.0
  0
LINE
  5
1525
330
6B
100
AcDbEntity
  8
0
 62
     2
100
AcDbLine
 10
629.656828539129
 20
168.777403
 30
0.0
 11
629.683728539129
 21
168.670948
 31
0.0
  0
LINE
  5
1526
330
6B
100
AcDbEntity
  8
0
 62
     2
100
AcDbLine
 10
629.683728539129
 20
168.670948
 30
0.0
 11
629.7139395391289
 21
168.5715
 31
0.0
  0
LINE
  5
1527
330
6B
100
AcDbEntity
  8
0
 62
     2
100
AcDbLine
 10
629.7139395391289
 20
168.5715
 30
0.0
 11
629.747225539129
 21
168.479826
 31
0.0
  0
LINE
  5
1528
330
6B
100
AcDbEntity
  8
0
 62
     2
100
AcDbLine
 10
629.747225539129
 20
168.479826
 30
0.0
 11
629.7833305391288
 21
168.396636
 31
0.0
  0
LINE
  5
1529
330
6B
100
AcDbEntity
  8
0
 62
     2
100
AcDbLine
 10
629.7833305391288
 20
168.396636
 30
0.0
 11
629.8219765391287
 21
168.322572
 31
0.0
  0
LINE
  5
152A
330
6B
100
AcDbEntity
  8
0
 62
     2
100
AcDbLine
 10
629.8219765391287
 20
168.322572
 30
0.0
 11
629.8628625391287
 21
168.258207
 31
0.0
  0
LINE
  5
152B
330
6B
100
AcDbEntity
  8
0
 62
     2
100
AcDbLine
 10
629.8628625391287
 20
168.258207
 30
0.0
 11
629.905674539129
 21
168.2040379999999
 31
0.0
  0
LINE
  5
152C
330
6B
100
AcDbEntity
  8
0
 62
     2
100
AcDbLine
 10
629.905674539129
 20
168.2040379999999
 30
0.0
 11
629.9500805391287
 21
168.160485
 31
0.0
  0
LINE
  5
152D
330
6B
100
AcDbEntity
  8
0
 62
     2
100
AcDbLine
 10
629.9500805391287
 20
168.160485
 30
0.0
 11
629.9957375391287
 21
168.127884
 31
0.0
  0
LINE
  5
152E
330
6B
100
AcDbEntity
  8
0
 62
     2
100
AcDbLine
 10
629.9957375391287
 20
168.127884
 30
0.0
 11
630.042292539129
 21
168.106486
 31
0.0
  0
LINE
  5
152F
330
6B
100
AcDbEntity
  8
0
 62
     2
100
AcDbLine
 10
630.042292539129
 20
168.106486
 30
0.0
 11
630.0893855391286
 21
168.096457
 31
0.0
  0
LINE
  5
1530
330
6B
100
AcDbEntity
  8
0
 62
     2
100
AcDbLine
 10
630.0893855391286
 20
168.096457
 30
0.0
 11
630.136652539129
 21
168.097875
 31
0.0
  0
LINE
  5
1531
330
6B
100
AcDbEntity
  8
0
 62
     2
100
AcDbLine
 10
630.136652539129
 20
168.097875
 30
0.0
 11
630.183729539129
 21
168.110729
 31
0.0
  0
LINE
  5
1532
330
6B
100
AcDbEntity
  8
0
 62
     2
100
AcDbLine
 10
630.183729539129
 20
168.110729
 30
0.0
 11
630.2302505391288
 21
168.1349189999999
 31
0.0
  0
LINE
  5
1533
330
6B
100
AcDbEntity
  8
0
 62
     2
100
AcDbLine
 10
630.2302505391288
 20
168.1349189999999
 30
0.0
 11
630.275857539129
 21
168.170259
 31
0.0
  0
LINE
  5
1534
330
6B
100
AcDbEntity
  8
0
 62
     2
100
AcDbLine
 10
630.275857539129
 20
168.170259
 30
0.0
 11
630.320196539129
 21
168.216475
 31
0.0
  0
LINE
  5
1535
330
6B
100
AcDbEntity
  8
0
 62
     2
100
AcDbLine
 10
630.320196539129
 20
168.216475
 30
0.0
 11
630.3629265391289
 21
168.27321
 31
0.0
  0
LINE
  5
1536
330
6B
100
AcDbEntity
  8
0
 62
     2
100
AcDbLine
 10
630.3629265391289
 20
168.27321
 30
0.0
 11
630.4037165391287
 21
168.340025
 31
0.0
  0
LINE
  5
1537
330
6B
100
AcDbEntity
  8
0
 62
     2
100
AcDbLine
 10
630.4037165391287
 20
168.340025
 30
0.0
 11
630.4422515391287
 21
168.416404
 31
0.0
  0
LINE
  5
1538
330
6B
100
AcDbEntity
  8
0
 62
     2
100
AcDbLine
 10
630.4422515391287
 20
168.416404
 30
0.0
 11
630.4782325391287
 21
168.501757
 31
0.0
  0
LINE
  5
1539
330
6B
100
AcDbEntity
  8
0
 62
     2
100
AcDbLine
 10
630.4782325391287
 20
168.501757
 30
0.0
 11
630.511382539129
 21
168.595424
 31
0.0
  0
LINE
  5
153A
330
6B
100
AcDbEntity
  8
0
 62
     2
100
AcDbLine
 10
630.511382539129
 20
168.595424
 30
0.0
 11
630.5414445391289
 21
168.696681
 31
0.0
  0
LINE
  5
153B
330
6B
100
AcDbEntity
  8
0
 62
     2
100
AcDbLine
 10
630.5414445391289
 20
168.696681
 30
0.0
 11
630.568186539129
 21
168.804745
 31
0.0
  0
LINE
  5
153C
330
6B
100
AcDbEntity
  8
0
 62
     2
100
AcDbLine
 10
630.568186539129
 20
168.804745
 30
0.0
 11
630.5914025391289
 21
168.9187809999999
 31
0.0
  0
LINE
  5
153D
330
6B
100
AcDbEntity
  8
0
 62
     2
100
AcDbLine
 10
630.5914025391289
 20
168.9187809999999
 30
0.0
 11
630.610912539129
 21
169.037908
 31
0.0
  0
TEXT
  5
153E
330
6B
100
AcDbEntity
  8
0
  6
Continuous
 62
     4
100
AcDbText
 10
609.0685682060628
 20
-53.41371264971575
 30
0.0
 40
3.0
  1
\U+220548
100
AcDbText
  0
LINE
  5
153F
330
6B
100
AcDbEntity
  8
0
  6
ByBlock
 62
     0
370
    -2
100
AcDbLine
 10
592.9148705793115
 20
-54.70858514971576
 30
0.0
 11
590.4148705793114
 21
-54.03871264971575
 31
0.0
  0
LINE
  5
1540
330
6B
100
AcDbEntity
  8
0
  6
ByBlock
 62
     0
370
    -2
100
AcDbLine
 10
590.4148705793114
 20
-54.03871264971575
 30
0.0
 11
592.9148705793115
 21
-53.36884014971576
 31
0.0
  0
LINE
  5
1541
330
6B
100
AcDbEntity
  8
0
  6
ByBlock
 62
     0
370
    -2
100
AcDbLine
 10
590.4148705793114
 20
-54.03871264971575
 30
0.0
 11
592.9148705793115
 21
-54.03871264971575
 31
0.0
  0
LINE
  5
1542
330
6B
100
AcDbEntity
  8
0
  6
ByBlock
 62
     0
370
    -2
100
AcDbLine
 10
635.9148705793115
 20
-53.36884014971576
 30
0.0
 11
638.4148705793116
 21
-54.03871264971575
 31
0.0
  0
LINE
  5
1543
330
6B
100
AcDbEntity
  8
0
  6
ByBlock
 62
     0
370
    -2
100
AcDbLine
 10
638.4148705793116
 20
-54.03871264971575
 30
0.0
 11
635.9148705793115
 21
-54.70858514971575
 31
0.0
  0
LINE
  5
1544
330
6B
100
AcDbEntity
  8
0
  6
ByBlock
 62
     0
370
    -2
100
AcDbLine
 10
638.4148705793116
 20
-54.03871264971575
 30
0.0
 11
635.9148705793115
 21
-54.03871264971575
 31
0.0
  0
TEXT
  5
1545
330
6B
100
AcDbEntity
  8
0
  6
Continuous
 62
     4
100
AcDbText
 10
568.8602973707098
 20
-12.84303599999997
 30
0.0
 40
3.0
  1
62
 50
90.0
100
AcDbText
  0
LINE
  5
1546
330
6B
100
AcDbEntity
  8
0
  6
ByBlock
 62
     0
370
    -2
100
AcDbLine
 10
570.1551698707098
 20
-39.34303599999997
 30
0.0
 11
569.4852973707098
 21
-41.84303599999997
 31
0.0
  0
LINE
  5
1547
330
6B
100
AcDbEntity
  8
0
  6
ByBlock
 62
     0
370
    -2
100
AcDbLine
 10
569.4852973707098
 20
-41.84303599999997
 30
0.0
 11
568.8154248707099
 21
-39.34303599999997
 31
0.0
  0
LINE
  5
1548
330
6B
100
AcDbEntity
  8
0
  6
ByBlock
 62
     0
370
    -2
100
AcDbLine
 10
569.4852973707098
 20
-41.84303599999997
 30
0.0
 11
569.4852973707098
 21
-39.34303599999997
 31
0.0
  0
LINE
  5
1549
330
6B
100
AcDbEntity
  8
0
  6
ByBlock
 62
     0
370
    -2
100
AcDbLine
 10
568.8154248707099
 20
17.656964
 30
0.0
 11
569.4852973707098
 21
20.15696400000001
 31
0.0
  0
LINE
  5
154A
330
6B
100
AcDbEntity
  8
0
  6
ByBlock
 62
     0
370
    -2
100
AcDbLine
 10
569.4852973707098
 20
20.15696400000001
 30
0.0
 11
570.1551698707098
 21
17.656964
 31
0.0
  0
LINE
  5
154B
330
6B
100
AcDbEntity
  8
0
  6
ByBlock
 62
     0
370
    -2
100
AcDbLine
 10
569.4852973707098
 20
20.15696400000001
 30
0.0
 11
569.4852973707098
 21
17.656964
 31
0.0
  0
TEXT
  5
154C
330
6B
100
AcDbEntity
  8
0
  6
Continuous
 62
     4
100
AcDbText
 10
610.4436955793113
 20
-48.196878
 30
0.0
 40
3.0
  1
E26
100
AcDbText
  0
LINE
  5
154D
330
6B
100
AcDbEntity
  8
0
  6
ByBlock
 62
     0
370
    -2
100
AcDbLine
 10
624.9148705793114
 20
-48.15200550000001
 30
0.0
 11
627.4148705793114
 21
-48.821878
 31
0.0
  0
LINE
  5
154E
330
6B
100
AcDbEntity
  8
0
  6
ByBlock
 62
     0
370
    -2
100
AcDbLine
 10
627.4148705793114
 20
-48.821878
 30
0.0
 11
624.9148705793114
 21
-49.4917505
 31
0.0
  0
LINE
  5
154F
330
6B
100
AcDbEntity
  8
0
  6
ByBlock
 62
     0
370
    -2
100
AcDbLine
 10
627.4148705793114
 20
-48.821878
 30
0.0
 11
624.9148705793114
 21
-48.821878
 31
0.0
  0
LINE
  5
1550
330
6B
100
AcDbEntity
  8
0
  6
ByBlock
 62
     0
370
    -2
100
AcDbLine
 10
603.9725205793112
 20
-49.4917505
 30
0.0
 11
601.4725205793112
 21
-48.821878
 31
0.0
  0
LINE
  5
1551
330
6B
100
AcDbEntity
  8
0
  6
ByBlock
 62
     0
370
    -2
100
AcDbLine
 10
601.4725205793112
 20
-48.821878
 30
0.0
 11
603.9725205793112
 21
-48.15200550000001
 31
0.0
  0
LINE
  5
1552
330
6B
100
AcDbEntity
  8
0
  6
ByBlock
 62
     0
370
    -2
100
AcDbLine
 10
601.4725205793112
 20
-48.821878
 30
0.0
 11
603.9725205793112
 21
-48.821878
 31
0.0
  0
TEXT
  5
1553
330
6B
100
AcDbEntity
  8
0
  6
Continuous
 62
     4
100
AcDbText
 10
575.7512830306956
 20
-2.343035999999997
 30
0.0
 40
3.0
  1
35.5
 50
90.0
100
AcDbText
  0
LINE
  5
1554
330
6B
100
AcDbEntity
  8
0
  6
ByBlock
 62
     0
370
    -2
100
AcDbLine
 10
575.7064105306956
 20
17.656964
 30
0.0
 11
576.3762830306956
 21
20.15696400000001
 31
0.0
  0
LINE
  5
1555
330
6B
100
AcDbEntity
  8
0
  6
ByBlock
 62
     0
370
    -2
100
AcDbLine
 10
576.3762830306956
 20
20.15696400000001
 30
0.0
 11
577.0461555306956
 21
17.656964
 31
0.0
  0
LINE
  5
1556
330
6B
100
AcDbEntity
  8
0
  6
ByBlock
 62
     0
370
    -2
100
AcDbLine
 10
576.3762830306956
 20
20.15696400000001
 30
0.0
 11
576.3762830306956
 21
17.656964
 31
0.0
  0
LINE
  5
1557
330
6B
100
AcDbEntity
  8
0
  6
ByBlock
 62
     0
370
    -2
100
AcDbLine
 10
577.0461555306956
 20
-12.84303600000001
 30
0.0
 11
576.3762830306956
 21
-15.34303600000001
 31
0.0
  0
LINE
  5
1558
330
6B
100
AcDbEntity
  8
0
  6
ByBlock
 62
     0
370
    -2
100
AcDbLine
 10
576.3762830306956
 20
-15.34303600000001
 30
0.0
 11
575.7064105306956
 21
-12.84303600000001
 31
0.0
  0
LINE
  5
1559
330
6B
100
AcDbEntity
  8
0
  6
ByBlock
 62
     0
370
    -2
100
AcDbLine
 10
576.3762830306956
 20
-15.34303600000001
 30
0.0
 11
576.3762830306956
 21
-12.84303600000001
 31
0.0
  0
TEXT
  5
155A
330
6B
100
AcDbEntity
  8
0
  6
Continuous
 62
     4
100
AcDbText
 10
562.3368098296928
 20
39.1569640000001
 30
0.0
 40
3.0
  1
149
 50
90.0
100
AcDbText
  0
LINE
  5
155B
330
6B
100
AcDbEntity
  8
0
  6
ByBlock
 62
     0
370
    -2
100
AcDbLine
 10
562.2919373296928
 20
104.656964
 30
0.0
 11
562.9618098296928
 21
107.156964
 31
0.0
  0
LINE
  5
155C
330
6B
100
AcDbEntity
  8
0
  6
ByBlock
 62
     0
370
    -2
100
AcDbLine
 10
562.9618098296928
 20
107.156964
 30
0.0
 11
563.6316823296928
 21
104.656964
 31
0.0
  0
LINE
  5
155D
330
6B
100
AcDbEntity
  8
0
  6
ByBlock
 62
     0
370
    -2
100
AcDbLine
 10
562.9618098296928
 20
107.156964
 30
0.0
 11
562.9618098296928
 21
104.656964
 31
0.0
  0
LINE
  5
155E
330
6B
100
AcDbEntity
  8
0
  6
ByBlock
 62
     0
370
    -2
100
AcDbLine
 10
563.6316823296928
 20
-39.34303599999997
 30
0.0
 11
562.9618098296928
 21
-41.84303599999997
 31
0.0
  0
LINE
  5
155F
330
6B
100
AcDbEntity
  8
0
  6
ByBlock
 62
     0
370
    -2
100
AcDbLine
 10
562.9618098296928
 20
-41.84303599999997
 30
0.0
 11
562.2919373296928
 21
-39.34303599999997
 31
0.0
  0
LINE
  5
1560
330
6B
100
AcDbEntity
  8
0
  6
ByBlock
 62
     0
370
    -2
100
AcDbLine
 10
562.9618098296928
 20
-41.84303599999997
 30
0.0
 11
562.9618098296928
 21
-39.34303599999997
 31
0.0
  0
TEXT
  5
1561
330
6B
100
AcDbEntity
  8
0
  6
Continuous
 62
     4
100
AcDbText
 10
610.1574293162366
 20
123.1245344348733
 30
0.0
 40
3.0
  1
\U+220559
100
AcDbText
  0
LINE
  5
1562
330
6B
100
AcDbEntity
  8
0
  6
ByBlock
 62
     0
370
    -2
100
AcDbLine
 10
587.4148705793114
 20
121.8296619348733
 30
0.0
 11
584.9148705793115
 21
122.4995344348733
 31
0.0
  0
LINE
  5
1563
330
6B
100
AcDbEntity
  8
0
  6
ByBlock
 62
     0
370
    -2
100
AcDbLine
 10
584.9148705793115
 20
122.4995344348733
 30
0.0
 11
587.4148705793114
 21
123.1694069348733
 31
0.0
  0
LINE
  5
1564
330
6B
100
AcDbEntity
  8
0
  6
ByBlock
 62
     0
370
    -2
100
AcDbLine
 10
584.9148705793115
 20
122.4995344348733
 30
0.0
 11
587.4148705793114
 21
122.4995344348733
 31
0.0
  0
LINE
  5
1565
330
6B
100
AcDbEntity
  8
0
  6
ByBlock
 62
     0
370
    -2
100
AcDbLine
 10
641.4148705793114
 20
123.1694069348733
 30
0.0
 11
643.9148705793114
 21
122.4995344348733
 31
0.0
  0
LINE
  5
1566
330
6B
100
AcDbEntity
  8
0
  6
ByBlock
 62
     0
370
    -2
100
AcDbLine
 10
643.9148705793114
 20
122.4995344348733
 30
0.0
 11
641.4148705793114
 21
121.8296619348733
 31
0.0
  0
LINE
  5
1567
330
6B
100
AcDbEntity
  8
0
  6
ByBlock
 62
     0
370
    -2
100
AcDbLine
 10
643.9148705793114
 20
122.4995344348733
 30
0.0
 11
641.4148705793114
 21
122.4995344348733
 31
0.0
  0
ENDSEC
  0
SECTION
  2
OBJECTS
  0
DICTIONARY
  5
C
330
0
100
AcDbDictionary
281
     1
  3
ACAD_2007HEADERVARS_RT
350
156B
  3
ACAD_COLOR
350
62
  3
ACAD_GROUP
350
D
  3
ACAD_LAYOUT
350
61
  3
ACAD_MATERIAL
350
10
  3
ACAD_MLEADERSTYLE
350
65
  3
ACAD_MLINESTYLE
350
5E
  3
ACAD_PLOTSETTINGS
350
60
  3
ACAD_PLOTSTYLENAME
350
E
  3
ACAD_SCALELIST
350
42
  3
ACAD_TABLESTYLE
350
63
  3
ACAD_VISUALSTYLE
350
29
  3
ACDB_RECOMPOSE_DATA
350
1569
  3
AcDbVariableDictionary
350
56C
  3
DWGPROPS
350
156A
  0
DICTIONARY
  5
40F
330
2
100
AcDbDictionary
280
     1
281
     1
  3
ACAD_LAYERSTATES
360
410
  0
DICTIONARY
  5
568
330
54
100
AcDbDictionary
280
     1
281
     1
  3
ADSK_XREC_LAYER_RECONCILED
360
569
  0
DICTIONARY
  5
AB1
330
6B
100
AcDbDictionary
280
     1
281
     1
  3
ACAD_SORTENTS
360
AB2
  0
DICTIONARY
  5
156B
102
{ACAD_REACTORS
330
C
102
}
330
C
100
AcDbDictionary
281
     1
  3
DIMARCSYM
350
156D
  3
DIMFXL
350
156C
  3
DIMJOGANG
350
156E
  0
DICTIONARY
  5
62
102
{ACAD_REACTORS
330
C
102
}
330
C
100
AcDbDictionary
281
     1
  0
DICTIONARY
  5
D
102
{ACAD_REACTORS
330
C
102
}
330
C
100
AcDbDictionary
281
     1
  0
DICTIONARY
  5
61
102
{ACAD_REACTORS
330
C
102
}
330
C
100
AcDbDictionary
281
     1
  3
Model
350
6E
  3
レイアウト1
350
6A
  0
DICTIONARY
  5
10
102
{ACAD_REACTORS
330
C
102
}
330
C
100
AcDbDictionary
281
     1
  3
ByBlock
350
19
  3
ByLayer
350
11
  3
Global
350
21
  0
DICTIONARY
  5
65
102
{ACAD_REACTORS
330
C
102
}
330
C
100
AcDbDictionary
281
     1
  3
Standard
350
66
  0
DICTIONARY
  5
5E
102
{ACAD_REACTORS
330
C
102
}
330
C
100
AcDbDictionary
281
     1
  3
Standard
350
5F
  0
DICTIONARY
  5
60
102
{ACAD_REACTORS
330
C
102
}
330
C
100
AcDbDictionary
281
     1
  0
ACDBDICTIONARYWDFLT
  5
E
102
{ACAD_REACTORS
330
C
102
}
330
C
100
AcDbDictionary
281
     1
  3
Normal
350
F
100
AcDbDictionaryWithDefault
340
F
  0
DICTIONARY
  5
42
102
{ACAD_REACTORS
330
C
102
}
330
C
100
AcDbDictionary
281
     1
  3
A0
350
43
  3
A1
350
44
  3
A2
350
45
  3
A3
350
46
  3
A4
350
47
  3
A5
350
48
  3
A6
350
49
  3
A7
350
4A
  3
A8
350
4B
  3
A9
350
4C
  3
B0
350
4D
  3
B1
350
4E
  3
B2
350
4F
  3
B3
350
50
  3
B4
350
51
  3
B5
350
52
  3
B6
350
53
  0
DICTIONARY
  5
63
102
{ACAD_REACTORS
330
C
102
}
330
C
100
AcDbDictionary
281
     1
  3
Standard
350
64
  0
DICTIONARY
  5
29
102
{ACAD_REACTORS
330
C
102
}
330
C
100
AcDbDictionary
281
     1
  3
2dWireframe
350
2F
  3
3dWireframe
350
40E
  3
Basic
350
2E
  3
Brighten
350
35
  3
ColorChange
350
39
  3
Conceptual
350
32
  3
Dim
350
34
  3
EdgeColorOff
350
41
  3
Facepattern
350
38
  3
Flat
350
2A
  3
FlatWithEdges
350
2B
  3
Gouraud
350
2C
  3
GouraudWithEdges
350
2D
  3
Hidden
350
31
  3
JitterOff
350
3F
  3
Linepattern
350
37
  3
OverhangOff
350
40
  3
Realistic
350
33
  3
Shaded
350
3E
  3
Shaded with edges
350
3D
  3
Shades of Gray
350
3A
  3
Sketchy
350
3B
  3
Thicken
350
36
  3
Wireframe
350
30
  3
X-Ray
350
3C
  0
XRECORD
  5
1569
102
{ACAD_REACTORS
330
C
102
}
330
C
100
AcDbXrecord
280
     1
 90
        1
330
64
  0
DICTIONARY
  5
56C
102
{ACAD_REACTORS
330
C
102
}
330
C
100
AcDbDictionary
281
     1
  3
CANNOSCALE
350
56F
  3
CMLEADERSTYLE
350
56E
  3
CTABLESTYLE
350
56D
  3
DIMASSOC
350
572
  3
INDEXCTL
350
571
  3
SORTENTS
350
570
  3
XCLIPFRAME
350
145E
  0
XRECORD
  5
156A
102
{ACAD_REACTORS
330
C
102
}
330
C
100
AcDbXrecord
280
     1
  1
DWGPROPS COOKIE
  2

  3

  4

  6

  7

  8
imamura
  9

300
=
301
=
302
=
303
=
304
=
305
=
306
=
307
=
308
=
309
=
 40
0.0947637731481482
 41
2456071.597640926
 42
2457070.710193646
  1

 90
        0
  0
DICTIONARY
  5
410
102
{ACAD_REACTORS
330
40F
102
}
330
40F
100
AcDbDictionary
281
     1
  0
XRECORD
  5
569
102
{ACAD_REACTORS
330
568
102
}
330
568
100
AcDbXrecord
280
     1
290
     1
  0
SORTENTSTABLE
  5
AB2
102
{ACAD_REACTORS
330
AB1
102
}
330
AB1
100
AcDbSortentsTable
330
6B
331
119E
  5
137D
331
119A
  5
1376
331
8AF
  5
11B2
331
8AB
  5
11B0
331
11D5
  5
14FA
331
85C
  5
940
331
11D1
  5
14F3
331
11DF
  5
1504
331
1546
  5
1365
331
858
  5
8BE
331
1542
  5
151C
331
11DB
  5
1500
331
7ED
  5
7ED
331
134E
  5
152E
331
153E
  5
1522
331
7E9
  5
7E9
331
824
  5
876
331
153A
  5
85C
331
1507
  5
822
331
7E5
  5
7E5
331
820
  5
872
331
1503
  5
81E
331
7E1
  5
7E1
331
893
  5
11AC
331
11CD
  5
14EF
331
854
  5
8B5
331
10A6
  5
11CE
331
11C9
  5
14EB
331
88F
  5
11A8
331
10A2
  5
11C9
331
88B
  5
11A4
331
11C5
  5
14E8
331
84C
  5
8B0
331
11C1
  5
14E3
331
848
  5
896
331
C3A
  5
11C3
331
12A6
  5
152A
331
1536
  5
858
331
12A2
  5
1526
331
1532
  5
854
331
81C
  5
869
331
1376
  5
1549
331
14FF
  5
81A
331
7DD
  5
7DD
331
152E
  5
84D
331
1372
  5
1545
331
14FB
  5
11D2
331
7D9
  5
7D9
331
818
  5
818
331
152A
  5
849
331
814
  5
814
331
136E
  5
1544
331
7D5
  5
7D5
331
136A
  5
1541
331
14F3
  5
11E3
331
7D1
  5
7D1
331
810
  5
810
331
1197
  5
1373
331
887
  5
11A0
331
883
  5
119C
331
11BD
  5
14DF
331
844
  5
892
331
87F
  5
1198
331
11B9
  5
14DB
331
840
  5
890
331
942
  5
11C2
331
87B
  5
1193
331
139C
  5
1563
331
11B5
  5
139D
331
83C
  5
88E
331
11B1
  5
1395
331
1565
  5
11D6
331
838
  5
88A
331
1276
  5
1518
331
1526
  5
845
331
1394
  5
155F
331
1561
  5
11E2
331
1522
  5
83D
331
1366
  5
1540
331
14EF
  5
125D
331
7CD
  5
7CD
331
80C
  5
80C
331
1390
  5
155B
331
155D
  5
11EE
331
151E
  5
839
331
1362
  5
153D
331
7C9
  5
7C9
331
808
  5
808
331
1559
  5
1275
331
1262
  5
14E5
331
151A
  5
835
331
804
  5
804
331
14E7
  5
12A2
331
7C5
  5
7C5
331
800
  5
800
331
135A
  5
1538
331
14E3
  5
1360
331
7C1
  5
7C1
331
877
  5
118F
331
873
  5
10A5
331
11AD
  5
1391
331
834
  5
886
331
8BE
  5
11BC
331
86F
  5
10A1
331
11A9
  5
138C
331
830
  5
882
331
11A5
  5
1387
331
82C
  5
87E
331
138C
  5
1558
331
8B6
  5
11B9
331
11A1
  5
1382
331
828
  5
87A
331
1388
  5
1555
331
1555
  5
129F
331
8B2
  5
11B5
331
11EE
  5
1511
331
1516
  5
831
331
1384
  5
1552
331
1551
  5
12A6
331
11EA
  5
150F
331
1512
  5
82D
331
1356
  5
1535
331
7BD
  5
7BD
331
7FC
  5
7FC
331
1380
  5
154E
331
154D
  5
134B
331
11E6
  5
150B
331
150E
  5
829
331
14DB
  5
1519
331
7B9
  5
7B9
331
7F8
  5
7F8
331
1549
  5
1361
331
11E2
  5
1507
331
150A
  5
825
331
11F0
  5
1513
331
7B5
  5
7B5
331
7F4
  5
7F4
331
7F0
  5
7F0
331
7B1
  5
7B1
331
118E
  5
1355
331
118A
  5
1350
331
119D
  5
137C
331
863
  5
C3C
331
1199
  5
1375
331
85F
  5
C3A
331
11D4
  5
14F9
331
85B
  5
8C1
331
11D0
  5
14F2
331
11DE
  5
1503
331
1545
  5
136C
331
1541
  5
1521
331
11DA
  5
14FF
331
7EC
  5
7EC
331
134D
  5
152D
331
153D
  5
85F
331
827
  5
879
331
7E8
  5
7E8
331
1349
  5
152B
331
1539
  5
85B
331
823
  5
875
331
137D
  5
154D
331
1506
  5
821
331
7E4
  5
7E4
331
1502
  5
81D
331
7E0
  5
7E0
331
896
  5
11AF
331
857
  5
8B8
331
892
  5
11AB
331
11CC
  5
14EE
331
853
  5
8B4
331
10A5
  5
11CD
331
88E
  5
11A7
331
11C8
  5
14EA
331
84F
  5
8B3
331
10A1
  5
11C7
331
88A
  5
11A3
331
11C4
  5
14E7
331
84B
  5
8AF
331
11C0
  5
14E2
331
12A5
  5
1529
331
1535
  5
857
331
81F
  5
871
331
12A1
  5
1525
331
1531
  5
853
331
81B
  5
863
331
1375
  5
1548
331
7DC
  5
7DC
331
152D
  5
84C
331
14FA
  5
11D1
331
7D8
  5
7D8
331
817
  5
817
331
1529
  5
848
331
813
  5
813
331
136D
  5
1543
331
7D4
  5
7D4
331
7D0
  5
7D0
331
1196
  5
1372
331
1192
  5
135A
331
886
  5
119F
331
847
  5
895
331
11BC
  5
14DE
331
882
  5
119B
331
11B8
  5
13A1
331
87E
  5
1196
331
139F
  5
1566
331
941
  5
11C1
331
87A
  5
1192
331
139B
  5
1562
331
11B4
  5
139C
331
83B
  5
88D
331
11B0
  5
1394
331
1564
  5
11DE
331
8C1
  5
11BF
331
1275
  5
1517
331
80F
  5
80F
331
1525
  5
844
331
1393
  5
155E
331
1560
  5
11EB
331
1521
  5
83C
331
1365
  5
153F
331
14EE
  5
11F1
331
7CC
  5
7CC
331
80B
  5
80B
331
155C
  5
11ED
331
151D
  5
838
331
1361
  5
153C
331
7C8
  5
7C8
331
807
  5
807
331
1558
  5
1262
331
1261
  5
14E6
331
1519
  5
834
331
803
  5
803
331
7C4
  5
7C4
331
1359
  5
1537
331
14E2
  5
135F
331
7C0
  5
7C0
331
876
  5
118A
331
837
  5
889
331
872
  5
10A4
331
11AC
  5
1390
331
833
  5
885
331
138F
  5
155A
331
11A8
  5
138A
331
82F
  5
881
331
11A4
  5
1386
331
82B
  5
87D
331
8B5
  5
11B8
331
11A0
  5
1381
331
1387
  5
1554
331
1554
  5
1276
331
8B1
  5
11B4
331
7FF
  5
7FF
331
1515
  5
830
331
1383
  5
1551
331
1550
  5
12A5
331
11E9
  5
150E
331
1511
  5
82C
331
1355
  5
1534
331
7BC
  5
7BC
331
7FB
  5
7FB
331
154C
  5
134F
331
11E5
  5
150A
331
150D
  5
828
331
1351
  5
1531
331
11F3
  5
1516
331
7B8
  5
7B8
331
7F7
  5
7F7
331
1548
  5
136A
331
11E1
  5
1506
331
1509
  5
824
331
7F3
  5
7F3
331
7B4
  5
7B4
331
118D
  5
1354
331
119C
  5
1378
331
11D7
  5
14FC
331
1198
  5
1374
331
85E
  5
942
331
11D3
  5
14F5
331
85A
  5
8C0
331
1544
  5
151E
331
11DD
  5
1502
331
10A8
  5
11CF
331
7EF
  5
7EF
331
1540
  5
1520
331
11D9
  5
14FE
331
7EB
  5
7EB
331
826
  5
878
331
153C
  5
85E
331
7E7
  5
7E7
331
822
  5
874
331
1538
  5
85A
331
137C
  5
154C
331
1505
  5
820
331
7E3
  5
7E3
331
1378
  5
154B
331
1501
  5
81C
331
895
  5
11AE
331
11CF
  5
14F1
331
856
  5
8B7
331
11CB
  5
14ED
331
891
  5
11AA
331
10A4
  5
11CB
331
88D
  5
11A6
331
11C7
  5
14E9
331
84E
  5
8B2
331
10A0
  5
11C6
331
889
  5
11A2
331
C3C
  5
11C5
331
84A
  5
8AC
331
12A4
  5
1528
331
1534
  5
856
331
81E
  5
870
331
7DF
  5
7DF
331
12A0
  5
1524
331
1530
  5
84F
331
81A
  5
861
331
1374
  5
1547
331
7DB
  5
7DB
331
152C
  5
84B
331
14F9
  5
11D0
331
7D7
  5
7D7
331
816
  5
816
331
1528
  5
847
331
812
  5
812
331
136C
  5
1542
331
14F5
  5
11E8
331
7D3
  5
7D3
331
1195
  5
136E
331
1191
  5
1359
331
885
  5
119E
331
11BF
  5
14E1
331
846
  5
894
331
881
  5
119A
331
11BB
  5
14DD
331
842
  5
891
331
11B7
  5
139F
331
87D
  5
1195
331
139E
  5
1565
331
940
  5
11C0
331
879
  5
1191
331
11B3
  5
139B
331
1567
  5
11D8
331
83A
  5
88C
331
1563
  5
11DD
331
8C0
  5
11BE
331
1524
  5
842
331
7CF
  5
7CF
331
80E
  5
80E
331
1392
  5
155D
331
155F
  5
11EA
331
1520
  5
83B
331
14ED
  5
11F0
331
7CB
  5
7CB
331
80A
  5
80A
331
155B
  5
11EC
331
151C
  5
837
331
1360
  5
153B
331
14E9
  5
12A4
331
7C7
  5
7C7
331
806
  5
806
331
1518
  5
833
331
802
  5
802
331
7C3
  5
7C3
331
14E1
  5
135B
331
875
  5
10A8
331
11AF
  5
1393
331
836
  5
888
331
871
  5
10A3
331
11AB
  5
138F
331
832
  5
884
331
11A7
  5
1389
331
82E
  5
880
331
138E
  5
1559
331
8B8
  5
11BB
331
869
  5
10A0
331
11A3
  5
1384
331
82A
  5
87C
331
138A
  5
1557
331
1557
  5
125E
331
8B4
  5
11B7
331
1386
  5
1553
331
1553
  5
12A1
331
8B0
  5
11B3
331
1514
  5
82F
331
7BF
  5
7BF
331
7FE
  5
7FE
331
1382
  5
1550
331
154F
  5
134E
331
11E8
  5
150D
331
1510
  5
82B
331
1354
  5
1533
331
14DD
  5
151B
331
7BB
  5
7BB
331
7FA
  5
7FA
331
154B
  5
1363
331
11E4
  5
1509
331
150C
  5
827
331
1350
  5
1530
331
11F2
  5
1515
331
7B7
  5
7B7
331
7F6
  5
7F6
331
11E0
  5
1505
331
1508
  5
823
331
7F2
  5
7F2
331
7B3
  5
7B3
331
118C
  5
1353
331
119F
  5
1380
331
119B
  5
1377
331
861
  5
C3B
331
8AC
  5
11B1
331
11D6
  5
14FB
331
85D
  5
941
331
11D2
  5
14F4
331
1547
  5
1366
331
859
  5
8BF
331
1543
  5
151D
331
11DC
  5
1501
331
7EE
  5
7EE
331
134F
  5
152F
331
153F
  5
151F
331
11D8
  5
14FD
331
7EA
  5
7EA
331
134B
  5
152C
331
153B
  5
85D
331
825
  5
877
331
7E6
  5
7E6
331
821
  5
873
331
1504
  5
81F
331
7E2
  5
7E2
331
1500
  5
81B
331
894
  5
11AD
331
11CE
  5
14F0
331
855
  5
8B6
331
11CA
  5
14EC
331
890
  5
11A9
331
10A3
  5
11CA
331
88C
  5
11A5
331
84D
  5
8B1
331
888
  5
11A1
331
11C2
  5
14E4
331
849
  5
8AB
331
C3B
  5
11C4
331
1537
  5
859
331
12A3
  5
1527
331
1533
  5
855
331
81D
  5
86F
331
1377
  5
154A
331
7DE
  5
7DE
331
13A1
  5
1567
331
129F
  5
1523
331
152F
  5
84E
331
1373
  5
1546
331
7DA
  5
7DA
331
152B
  5
84A
331
815
  5
815
331
7D6
  5
7D6
331
811
  5
811
331
14F4
  5
11E4
331
7D2
  5
7D2
331
1194
  5
136D
331
1190
  5
1357
331
884
  5
119D
331
11BE
  5
14E0
331
845
  5
893
331
11BA
  5
14DC
331
880
  5
1199
331
87C
  5
1194
331
139D
  5
1564
331
11B6
  5
139E
331
83D
  5
88F
331
878
  5
1190
331
1399
  5
1561
331
11B2
  5
1399
331
1566
  5
11D7
331
839
  5
88B
331
1527
  5
846
331
1395
  5
1560
331
1562
  5
11DC
331
1523
  5
840
331
7CE
  5
7CE
331
80D
  5
80D
331
1391
  5
155C
331
155E
  5
11E9
331
151F
  5
83A
331
1363
  5
153E
331
7CA
  5
7CA
331
809
  5
809
331
155A
  5
11EF
331
151B
  5
836
331
135F
  5
153A
331
14E8
  5
12A3
331
7C6
  5
7C6
331
805
  5
805
331
801
  5
801
331
135B
  5
1539
331
7C2
  5
7C2
331
874
  5
10A6
331
11AE
  5
1392
331
835
  5
887
331
8BF
  5
11BD
331
870
  5
10A2
331
11AA
  5
138E
331
831
  5
883
331
11A6
  5
1388
331
82D
  5
87F
331
8B7
  5
11BA
331
11A2
  5
1383
331
829
  5
87B
331
1389
  5
1556
331
1556
  5
12A0
331
8B3
  5
11B6
331
11EF
  5
1512
331
1517
  5
832
331
1552
  5
1349
331
11EB
  5
1510
331
1513
  5
82E
331
1357
  5
1536
331
7BE
  5
7BE
331
7FD
  5
7FD
331
1381
  5
154F
331
154E
  5
134D
331
11E7
  5
150C
331
150F
  5
82A
331
1353
  5
1532
331
14DC
  5
151A
331
7BA
  5
7BA
331
7F9
  5
7F9
331
154A
  5
1362
331
11E3
  5
1508
331
150B
  5
826
331
11F1
  5
1514
331
7B6
  5
7B6
331
7F5
  5
7F5
331
7F1
  5
7F1
331
7B2
  5
7B2
331
118F
  5
1356
331
118B
  5
1351
  0
XRECORD
  5
156D
102
{ACAD_REACTORS
330
156B
102
}
330
156B
100
AcDbXrecord
280
     1
 70
     2
  0
XRECORD
  5
156C
102
{ACAD_REACTORS
330
156B
102
}
330
156B
100
AcDbXrecord
280
     1
 40
1.25
  0
XRECORD
  5
156E
102
{ACAD_REACTORS
330
156B
102
}
330
156B
100
AcDbXrecord
280
     1
 40
1.570796326794896
  0
LAYOUT
  5
6E
102
{ACAD_XDICTIONARY
360
15A2
102
}
102
{ACAD_REACTORS
330
61
102
}
330
61
100
AcDbPlotSettings
  1

  2
FX DP 205
  4

  6

 40
0.0
 41
0.0
 42
0.0
 43
0.0
 44
0.0
 45
0.0
 46
0.0
 47
0.0
 48
0.0
 49
0.0
140
0.0
141
0.0
142
1.0
143
1.0
 70
  1712
 72
     0
 73
     0
 74
     0
  7

 75
     0
147
1.0
148
0.0
149
0.0
100
AcDbLayout
  1
Model
 70
     1
 71
     0
 10
0.0
 20
0.0
 11
12.0
 21
9.0
 12
0.0
 22
0.0
 32
0.0
 14
0.0
 24
0.0
 34
0.0
 15
0.0
 25
0.0
 35
0.0
146
0.0
 13
0.0
 23
0.0
 33
0.0
 16
1.0
 26
0.0
 36
0.0
 17
0.0
 27
1.0
 37
0.0
 76
     0
330
6B
331
8B
  0
LAYOUT
  5
6A
102
{ACAD_XDICTIONARY
360
15A0
102
}
102
{ACAD_REACTORS
330
61
102
}
330
61
100
AcDbPlotSettings
  1

  2
FX DP 205
  4

  6

 40
0.0
 41
0.0
 42
0.0
 43
0.0
 44
0.0
 45
0.0
 46
0.0
 47
0.0
 48
0.0
 49
0.0
140
0.0
141
0.0
142
1.0
143
1.0
 70
   688
 72
     0
 73
     0
 74
     5
  7

 75
    16
147
1.0
148
0.0
149
0.0
100
AcDbLayout
  1
レイアウト1
 70
     1
 71
     1
 10
0.0
 20
0.0
 11
12.0
 21
9.0
 12
0.0
 22
0.0
 32
0.0
 14
1.000000000000000E+20
 24
1.000000000000000E+20
 34
1.000000000000000E+20
 15
-1.000000000000000E+20
 25
-1.000000000000000E+20
 35
-1.000000000000000E+20
146
0.0
 13
0.0
 23
0.0
 33
0.0
 16
1.0
 26
0.0
 36
0.0
 17
0.0
 27
1.0
 37
0.0
 76
     0
330
67
  0
MATERIAL
  5
19
102
{ACAD_XDICTIONARY
360
1A
102
}
102
{ACAD_REACTORS
330
10
102
}
330
10
100
AcDbMaterial
  1
ByBlock
 72
     0
 43
0.0208333333333333
 43
0.0
 43
0.0
 43
0.0
 43
0.0
 43
0.0208333333333333
 43
0.0
 43
0.0
 43
0.0
 43
0.0
 43
1.0
 43
0.0
 43
0.0
 43
0.0
 43
0.0
 43
1.0
 77
     0
 47
0.0208333333333333
 47
0.0
 47
0.0
 47
0.0
 47
0.0
 47
0.0208333333333333
 47
0.0
 47
0.0
 47
0.0
 47
0.0
 47
1.0
 47
0.0
 47
0.0
 47
0.0
 47
0.0
 47
1.0
171
     0
 49
0.0208333333333333
 49
0.0
 49
0.0
 49
0.0
 49
0.0
 49
0.0208333333333333
 49
0.0
 49
0.0
 49
0.0
 49
0.0
 49
1.0
 49
0.0
 49
0.0
 49
0.0
 49
0.0
 49
1.0
175
     0
142
0.0208333333333333
142
0.0
142
0.0
142
0.0
142
0.0
142
0.0208333333333333
142
0.0
142
0.0
142
0.0
142
0.0
142
1.0
142
0.0
142
0.0
142
0.0
142
0.0
142
1.0
179
     0
144
0.0208333333333333
144
0.0
144
0.0
144
0.0
144
0.0
144
0.0208333333333333
144
0.0
144
0.0
144
0.0
144
0.0
144
1.0
144
0.0
144
0.0
144
0.0
144
0.0
144
1.0
147
0.0208333333333333
147
0.0
147
0.0
147
0.0
147
0.0
147
0.0208333333333333
147
0.0
147
0.0
147
0.0
147
0.0
147
1.0
147
0.0
147
0.0
147
0.0
147
0.0
147
1.0
  0
MATERIAL
  5
11
102
{ACAD_XDICTIONARY
360
12
102
}
102
{ACAD_REACTORS
330
10
102
}
330
10
100
AcDbMaterial
  1
ByLayer
 72
     0
 43
0.0208333333333333
 43
0.0
 43
0.0
 43
0.0
 43
0.0
 43
0.0208333333333333
 43
0.0
 43
0.0
 43
0.0
 43
0.0
 43
1.0
 43
0.0
 43
0.0
 43
0.0
 43
0.0
 43
1.0
 77
     0
 47
0.0208333333333333
 47
0.0
 47
0.0
 47
0.0
 47
0.0
 47
0.0208333333333333
 47
0.0
 47
0.0
 47
0.0
 47
0.0
 47
1.0
 47
0.0
 47
0.0
 47
0.0
 47
0.0
 47
1.0
171
     0
 49
0.0208333333333333
 49
0.0
 49
0.0
 49
0.0
 49
0.0
 49
0.0208333333333333
 49
0.0
 49
0.0
 49
0.0
 49
0.0
 49
1.0
 49
0.0
 49
0.0
 49
0.0
 49
0.0
 49
1.0
175
     0
142
0.0208333333333333
142
0.0
142
0.0
142
0.0
142
0.0
142
0.0208333333333333
142
0.0
142
0.0
142
0.0
142
0.0
142
1.0
142
0.0
142
0.0
142
0.0
142
0.0
142
1.0
179
     0
144
0.0208333333333333
144
0.0
144
0.0
144
0.0
144
0.0
144
0.0208333333333333
144
0.0
144
0.0
144
0.0
144
0.0
144
1.0
144
0.0
144
0.0
144
0.0
144
0.0
144
1.0
147
0.0208333333333333
147
0.0
147
0.0
147
0.0
147
0.0
147
0.0208333333333333
147
0.0
147
0.0
147
0.0
147
0.0
147
1.0
147
0.0
147
0.0
147
0.0
147
0.0
147
1.0
  0
MATERIAL
  5
21
102
{ACAD_XDICTIONARY
360
22
102
}
102
{ACAD_REACTORS
330
10
102
}
330
10
100
AcDbMaterial
  1
Global
 72
     0
 43
0.0208333333333333
 43
0.0
 43
0.0
 43
0.0
 43
0.0
 43
0.0208333333333333
 43
0.0
 43
0.0
 43
0.0
 43
0.0
 43
1.0
 43
0.0
 43
0.0
 43
0.0
 43
0.0
 43
1.0
 77
     0
 47
0.0208333333333333
 47
0.0
 47
0.0
 47
0.0
 47
0.0
 47
0.0208333333333333
 47
0.0
 47
0.0
 47
0.0
 47
0.0
 47
1.0
 47
0.0
 47
0.0
 47
0.0
 47
0.0
 47
1.0
171
     0
 49
0.0208333333333333
 49
0.0
 49
0.0
 49
0.0
 49
0.0
 49
0.0208333333333333
 49
0.0
 49
0.0
 49
0.0
 49
0.0
 49
1.0
 49
0.0
 49
0.0
 49
0.0
 49
0.0
 49
1.0
175
     0
142
0.0208333333333333
142
0.0
142
0.0
142
0.0
142
0.0
142
0.0208333333333333
142
0.0
142
0.0
142
0.0
142
0.0
142
1.0
142
0.0
142
0.0
142
0.0
142
0.0
142
1.0
179
     0
144
0.0208333333333333
144
0.0
144
0.0
144
0.0
144
0.0
144
0.0208333333333333
144
0.0
144
0.0
144
0.0
144
0.0
144
1.0
144
0.0
144
0.0
144
0.0
144
0.0
144
1.0
147
0.0208333333333333
147
0.0
147
0.0
147
0.0
147
0.0
147
0.0208333333333333
147
0.0
147
0.0
147
0.0
147
0.0
147
1.0
147
0.0
147
0.0
147
0.0
147
0.0
147
1.0
  0
MLEADERSTYLE
  5
66
102
{ACAD_REACTORS
330
65
102
}
330
65
100
AcDbMLeaderStyle
170
     2
171
     1
172
     0
 90
        2
 40
0.0
 41
0.0
173
     1
 91
-1056964608
340
5A
 92
       -2
290
     1
 42
0.09
291
     1
 43
0.36
  3
Standard
 44
0.18
300

342
55
174
     1
178
     6
175
     1
176
     0
 93
-1056964608
 45
0.18
292
     0
297
     0
 46
0.18
 94
-1056964608
 47
1.0
 49
1.0
140
1.0
293
     1
141
0.0
294
     1
177
     0
142
1.0
295
     0
296
     0
143
0.125
1001
ACAD_MLEADERVER
1070
     2
  0
MLINESTYLE
  5
5F
102
{ACAD_REACTORS
330
5E
102
}
330
5E
100
AcDbMlineStyle
  2
STANDARD
 70
     0
  3

 62
   256
 51
90.0
 52
90.0
 71
     2
 49
0.5
 62
   256
  6
BYLAYER
 49
-0.5
 62
   256
  6
BYLAYER
  0
ACDBPLACEHOLDER
  5
F
102
{ACAD_REACTORS
330
E
102
}
330
E
  0
SCALE
  5
43
102
{ACAD_REACTORS
330
42
102
}
330
42
100
AcDbScale
 70
     0
300
1:1
140
1.0
141
1.0
290
     1
  0
SCALE
  5
44
102
{ACAD_REACTORS
330
42
102
}
330
42
100
AcDbScale
 70
     0
300
1/128" = 1'-0"
140
0.0078125
141
12.0
290
     0
  0
SCALE
  5
45
102
{ACAD_REACTORS
330
42
102
}
330
42
100
AcDbScale
 70
     0
300
1/64" = 1'-0"
140
0.015625
141
12.0
290
     0
  0
SCALE
  5
46
102
{ACAD_REACTORS
330
42
102
}
330
42
100
AcDbScale
 70
     0
300
1/32" = 1'-0"
140
0.03125
141
12.0
290
     0
  0
SCALE
  5
47
102
{ACAD_REACTORS
330
42
102
}
330
42
100
AcDbScale
 70
     0
300
1/16" = 1'-0"
140
0.0625
141
12.0
290
     0
  0
SCALE
  5
48
102
{ACAD_REACTORS
330
42
102
}
330
42
100
AcDbScale
 70
     0
300
3/32" = 1'-0"
140
0.09375
141
12.0
290
     0
  0
SCALE
  5
49
102
{ACAD_REACTORS
330
42
102
}
330
42
100
AcDbScale
 70
     0
300
1/8" = 1'-0"
140
0.125
141
12.0
290
     0
  0
SCALE
  5
4A
102
{ACAD_REACTORS
330
42
102
}
330
42
100
AcDbScale
 70
     0
300
3/16" = 1'-0"
140
0.1875
141
12.0
290
     0
  0
SCALE
  5
4B
102
{ACAD_REACTORS
330
42
102
}
330
42
100
AcDbScale
 70
     0
300
1/4" = 1'-0"
140
0.25
141
12.0
290
     0
  0
SCALE
  5
4C
102
{ACAD_REACTORS
330
42
102
}
330
42
100
AcDbScale
 70
     0
300
3/8" = 1'-0"
140
0.375
141
12.0
290
     0
  0
SCALE
  5
4D
102
{ACAD_REACTORS
330
42
102
}
330
42
100
AcDbScale
 70
     0
300
1/2" = 1'-0"
140
0.5
141
12.0
290
     0
  0
SCALE
  5
4E
102
{ACAD_REACTORS
330
42
102
}
330
42
100
AcDbScale
 70
     0
300
3/4" = 1'-0"
140
0.75
141
12.0
290
     0
  0
SCALE
  5
4F
102
{ACAD_REACTORS
330
42
102
}
330
42
100
AcDbScale
 70
     0
300
1" = 1'-0"
140
1.0
141
12.0
290
     0
  0
SCALE
  5
50
102
{ACAD_REACTORS
330
42
102
}
330
42
100
AcDbScale
 70
     0
300
1-1/2" = 1'-0"
140
1.5
141
12.0
290
     0
  0
SCALE
  5
51
102
{ACAD_REACTORS
330
42
102
}
330
42
100
AcDbScale
 70
     0
300
3" = 1'-0"
140
3.0
141
12.0
290
     0
  0
SCALE
  5
52
102
{ACAD_REACTORS
330
42
102
}
330
42
100
AcDbScale
 70
     0
300
6" = 1'-0"
140
6.0
141
12.0
290
     0
  0
SCALE
  5
53
102
{ACAD_REACTORS
330
42
102
}
330
42
100
AcDbScale
 70
     0
300
1'-0" = 1'-0"
140
12.0
141
12.0
290
     0
  0
TABLESTYLE
  5
64
102
{ACAD_XDICTIONARY
360
574
102
}
102
{ACAD_REACTORS
330
63
102
}
330
63
100
AcDbTableStyle
  3
Standard
 70
     0
 71
     0
 40
0.06
 41
0.06
280
     0
281
     0
  7
STANDARD
140
0.18
170
     2
 62
     0
 63
     7
283
     0
274
    -2
284
     1
 64
     0
275
    -2
285
     1
 65
     0
276
    -2
286
     1
 66
     0
277
    -2
287
     1
 67
     0
278
    -2
288
     1
 68
     0
279
    -2
289
     1
 69
     0
  7
STANDARD
140
0.25
170
     5
 62
     0
 63
     7
283
     0
274
    -2
284
     1
 64
     0
275
    -2
285
     1
 65
     0
276
    -2
286
     1
 66
     0
277
    -2
287
     1
 67
     0
278
    -2
288
     1
 68
     0
279
    -2
289
     1
 69
     0
  7
STANDARD
140
0.18
170
     5
 62
     0
 63
     7
283
     0
274
    -2
284
     1
 64
     0
275
    -2
285
     1
 65
     0
276
    -2
286
     1
 66
     0
277
    -2
287
     1
 67
     0
278
    -2
288
     1
 68
     0
279
    -2
289
     1
 69
     0
  0
VISUALSTYLE
  5
2F
102
{ACAD_XDICTIONARY
360
1579
102
}
102
{ACAD_REACTORS
330
29
102
}
330
29
100
AcDbVisualStyle
  2

 70
     4
 71
     0
 72
     2
 73
     0
 90
        0
 40
-0.6
 41
-30.0
 62
     5
 63
     7
 74
     1
 91
        4
 64
     7
 65
   257
 75
     1
175
     1
 42
1.0
 92
        0
 66
   257
 43
1.0
 76
     1
 77
     6
 78
     2
 67
     7
 79
     5
170
     0
171
     0
290
     0
174
     0
 93
        1
 44
0.0
173
     0
291
     0
 45
0.0
1001
ACAD
1000
AcDbSavedByObjectVersion
1070
     0
  0
VISUALSTYLE
  5
40E
102
{ACAD_XDICTIONARY
360
15A4
102
}
102
{ACAD_REACTORS
330
29
102
}
330
29
100
AcDbVisualStyle
  2

 70
     5
 71
     0
 72
     2
 73
     1
 90
        0
 40
-0.6
 41
-30.0
 62
     5
 63
     7
 74
     1
 91
        4
 64
     7
 65
   257
 75
     1
175
     1
 42
1.0
 92
        0
 66
   257
 43
1.0
 76
     1
 77
     6
 78
     2
 67
     7
 79
     5
170
     0
171
     0
290
     0
174
     0
 93
        1
 44
0.0
173
     0
291
     0
 45
0.0
1001
ACAD
1000
AcDbSavedByObjectVersion
1070
     0
  0
VISUALSTYLE
  5
2E
102
{ACAD_XDICTIONARY
360
1577
102
}
102
{ACAD_REACTORS
330
29
102
}
330
29
100
AcDbVisualStyle
  2

 70
     7
 71
     1
 72
     0
 73
     1
 90
        0
 40
-0.6
 41
-30.0
 62
     5
 63
     7
 74
     0
 91
        4
 64
     7
 65
   257
 75
     1
175
     1
 42
1.0
 92
        8
 66
     7
 43
1.0
 76
     1
 77
     6
 78
     2
 67
     7
 79
     5
170
     0
171
     0
290
     0
174
     0
 93
        1
 44
0.0
173
     0
291
     1
 45
0.0
1001
ACAD
1000
AcDbSavedByObjectVersion
1070
     0
  0
VISUALSTYLE
  5
35
102
{ACAD_XDICTIONARY
360
1585
102
}
102
{ACAD_REACTORS
330
29
102
}
330
29
100
AcDbVisualStyle
  2

 70
    12
 71
     2
 72
     2
 73
     0
 90
        0
 40
-0.6
 41
-30.0
 62
     5
 63
     7
 74
     1
 91
        4
 64
     7
 65
   257
 75
     1
175
     1
 42
1.0
 92
        8
 66
     7
 43
1.0
 76
     1
 77
     6
 78
     2
 67
     7
 79
     5
170
     0
171
     0
290
     0
174
     0
 93
        1
 44
50.0
173
     0
291
     1
 45
0.0
1001
ACAD
1000
AcDbSavedByObjectVersion
1070
     0
  0
VISUALSTYLE
  5
39
102
{ACAD_XDICTIONARY
360
158D
102
}
102
{ACAD_REACTORS
330
29
102
}
330
29
100
AcDbVisualStyle
  2

 70
    16
 71
     2
 72
     2
 73
     3
 90
        0
 40
-0.6
 41
-30.0
 62
     5
 63
     8
 74
     1
 91
        4
 64
     7
 65
   257
 75
     1
175
     1
 42
1.0
 92
        8
 66
     8
 43
1.0
 76
     1
 77
     6
 78
     2
 67
     7
 79
     5
170
     0
171
     0
290
     0
174
     0
 93
        1
 44
0.0
173
     0
291
     1
 45
0.0
1001
ACAD
1000
AcDbSavedByObjectVersion
1070
     0
  0
VISUALSTYLE
  5
32
102
{ACAD_XDICTIONARY
360
157F
102
}
102
{ACAD_REACTORS
330
29
102
}
330
29
100
AcDbVisualStyle
  2

 70
     9
 71
     3
 72
     2
 73
     0
 90
        0
 40
-0.6
 41
-30.0
 62
     5
 63
     7
 74
     2
 91
        2
 64
     7
 65
   257
 75
     1
175
     1
 42
179.0
 92
        8
 66
     7
 43
1.0
 76
     1
 77
     6
 78
     2
 67
     7
 79
     3
170
     0
171
     0
290
     0
174
     0
 93
        1
 44
0.0
173
     0
291
     0
 45
0.0
1001
ACAD
1000
AcDbSavedByObjectVersion
1070
     0
  0
VISUALSTYLE
  5
34
102
{ACAD_XDICTIONARY
360
1583
102
}
102
{ACAD_REACTORS
330
29
102
}
330
29
100
AcDbVisualStyle
  2

 70
    11
 71
     2
 72
     2
 73
     0
 90
        0
 40
-0.6
 41
-30.0
 62
     5
 63
     7
 74
     1
 91
        4
 64
     7
 65
   257
 75
     1
175
     1
 42
1.0
 92
        8
 66
     7
 43
1.0
 76
     1
 77
     6
 78
     2
 67
     7
 79
     5
170
     0
171
     0
290
     0
174
     0
 93
        1
 44
-50.0
173
     0
291
     1
 45
0.0
1001
ACAD
1000
AcDbSavedByObjectVersion
1070
     0
  0
VISUALSTYLE
  5
41
102
{ACAD_XDICTIONARY
360
159D
102
}
102
{ACAD_REACTORS
330
29
102
}
330
29
100
AcDbVisualStyle
  2

 70
    22
 71
     2
 72
     2
 73
     0
 90
        0
 40
-0.6
 41
-30.0
 62
     5
 63
     7
 74
     1
 91
        4
 64
     7
 65
   257
 75
     1
175
     1
 42
1.0
 92
        8
 66
     7
 43
1.0
 76
     1
 77
     6
 78
     2
 67
     7
 79
     5
170
     0
171
     0
290
     0
174
     0
 93
        1
 44
0.0
173
     0
291
     1
 45
0.0
1001
ACAD
1000
AcDbSavedByObjectVersion
1070
     0
  0
VISUALSTYLE
  5
38
102
{ACAD_XDICTIONARY
360
158B
102
}
102
{ACAD_REACTORS
330
29
102
}
330
29
100
AcDbVisualStyle
  2

 70
    15
 71
     2
 72
     2
 73
     0
 90
        0
 40
-0.6
 41
-30.0
 62
     5
 63
     7
 74
     1
 91
        4
 64
     7
 65
   257
 75
     1
175
     1
 42
1.0
 92
        8
 66
     7
 43
1.0
 76
     1
 77
     6
 78
     2
 67
     7
 79
     5
170
     0
171
     0
290
     0
174
     0
 93
        1
 44
0.0
173
     0
291
     1
 45
0.0
1001
ACAD
1000
AcDbSavedByObjectVersion
1070
     0
  0
VISUALSTYLE
  5
2A
102
{ACAD_XDICTIONARY
360
156F
102
}
102
{ACAD_REACTORS
330
29
102
}
330
29
100
AcDbVisualStyle
  2

 70
     0
 71
     2
 72
     1
 73
     1
 90
        2
 40
-0.6
 41
30.0
 62
     5
 63
     7
 74
     0
 91
        0
 64
     7
 65
   257
 75
     1
175
     1
 42
1.0
 92
        8
 66
     7
 43
1.0
 76
     1
 77
     6
 78
     2
 67
     7
 79
     5
170
     0
171
     0
290
     0
174
     0
 93
       13
 44
0.0
173
     0
291
     1
 45
0.0
1001
ACAD
1000
AcDbSavedByObjectVersion
1070
     0
  0
VISUALSTYLE
  5
2B
102
{ACAD_XDICTIONARY
360
1571
102
}
102
{ACAD_REACTORS
330
29
102
}
330
29
100
AcDbVisualStyle
  2

 70
     1
 71
     2
 72
     1
 73
     1
 90
        2
 40
-0.6
 41
30.0
 62
     5
 63
     7
 74
     1
 91
        0
 64
     7
 65
   257
 75
     1
175
     1
 42
1.0
 92
        0
 66
   257
 43
1.0
 76
     1
 77
     6
 78
     2
 67
     7
 79
     5
170
     0
171
     0
290
     0
174
     0
 93
       13
 44
0.0
173
     0
291
     1
 45
0.0
1001
ACAD
1000
AcDbSavedByObjectVersion
1070
     0
  0
VISUALSTYLE
  5
2C
102
{ACAD_XDICTIONARY
360
1573
102
}
102
{ACAD_REACTORS
330
29
102
}
330
29
100
AcDbVisualStyle
  2

 70
     2
 71
     2
 72
     2
 73
     1
 90
        2
 40
-0.6
 41
30.0
 62
     5
 63
     7
 74
     0
 91
        0
 64
     7
 65
   257
 75
     1
175
     1
 42
1.0
 92
        0
 66
     7
 43
1.0
 76
     1
 77
     6
 78
     2
 67
     7
 79
     5
170
     0
171
     0
290
     0
174
     0
 93
       13
 44
0.0
173
     0
291
     1
 45
0.0
1001
ACAD
1000
AcDbSavedByObjectVersion
1070
     0
  0
VISUALSTYLE
  5
2D
102
{ACAD_XDICTIONARY
360
1575
102
}
102
{ACAD_REACTORS
330
29
102
}
330
29
100
AcDbVisualStyle
  2

 70
     3
 71
     2
 72
     2
 73
     1
 90
        2
 40
-0.6
 41
30.0
 62
     5
 63
     7
 74
     1
 91
        0
 64
     7
 65
   257
 75
     1
175
     1
 42
1.0
 92
        0
 66
   257
 43
1.0
 76
     1
 77
     6
 78
     2
 67
     7
 79
     5
170
     0
171
     0
290
     0
174
     0
 93
       13
 44
0.0
173
     0
291
     1
 45
0.0
1001
ACAD
1000
AcDbSavedByObjectVersion
1070
     0
  0
VISUALSTYLE
  5
31
102
{ACAD_XDICTIONARY
360
157D
102
}
102
{ACAD_REACTORS
330
29
102
}
330
29
100
AcDbVisualStyle
  2

 70
     6
 71
     1
 72
     2
 73
     2
 90
        0
 40
-0.6
 41
-30.0
 62
     5
 63
     7
 74
     2
 91
        2
 64
     7
 65
   257
 75
     2
175
     1
 42
40.0
 92
        0
 66
   257
 43
1.0
 76
     1
 77
     6
 78
     2
 67
     7
 79
     3
170
     0
171
     0
290
     0
174
     0
 93
        1
 44
0.0
173
     0
291
     0
 45
0.0
1001
ACAD
1000
AcDbSavedByObjectVersion
1070
     0
  0
VISUALSTYLE
  5
3F
102
{ACAD_XDICTIONARY
360
1599
102
}
102
{ACAD_REACTORS
330
29
102
}
330
29
100
AcDbVisualStyle
  2

 70
    20
 71
     2
 72
     2
 73
     0
 90
        0
 40
-0.6
 41
-30.0
 62
     5
 63
     7
 74
     1
 91
        4
 64
     7
 65
   257
 75
     1
175
     1
 42
1.0
 92
       10
 66
     7
 43
1.0
 76
     1
 77
     6
 78
     2
 67
     7
 79
     5
170
     0
171
     0
290
     0
174
     0
 93
        1
 44
0.0
173
     0
291
     1
 45
0.0
1001
ACAD
1000
AcDbSavedByObjectVersion
1070
     0
  0
VISUALSTYLE
  5
37
102
{ACAD_XDICTIONARY
360
1589
102
}
102
{ACAD_REACTORS
330
29
102
}
330
29
100
AcDbVisualStyle
  2

 70
    14
 71
     2
 72
     2
 73
     0
 90
        0
 40
-0.6
 41
-30.0
 62
     5
 63
     7
 74
     1
 91
        4
 64
     7
 65
   257
 75
     7
175
     7
 42
1.0
 92
        8
 66
     7
 43
1.0
 76
     1
 77
     6
 78
     2
 67
     7
 79
     5
170
     0
171
     0
290
     0
174
     0
 93
        1
 44
0.0
173
     0
291
     1
 45
0.0
1001
ACAD
1000
AcDbSavedByObjectVersion
1070
     0
  0
VISUALSTYLE
  5
40
102
{ACAD_XDICTIONARY
360
159B
102
}
102
{ACAD_REACTORS
330
29
102
}
330
29
100
AcDbVisualStyle
  2

 70
    21
 71
     2
 72
     2
 73
     0
 90
        0
 40
-0.6
 41
-30.0
 62
     5
 63
     7
 74
     1
 91
        4
 64
     7
 65
   257
 75
     1
175
     1
 42
1.0
 92
        9
 66
     7
 43
1.0
 76
     1
 77
     6
 78
     2
 67
     7
 79
     5
170
     0
171
     0
290
     0
174
     0
 93
        1
 44
0.0
173
     0
291
     1
 45
0.0
1001
ACAD
1000
AcDbSavedByObjectVersion
1070
     0
  0
VISUALSTYLE
  5
33
102
{ACAD_XDICTIONARY
360
1581
102
}
102
{ACAD_REACTORS
330
29
102
}
330
29
100
AcDbVisualStyle
  2

 70
     8
 71
     2
 72
     3
 73
     0
 90
        2
 40
-0.6
 41
30.0
 62
     5
 63
     7
 74
     0
 91
        0
 64
     7
 65
   257
 75
     1
175
     1
 42
1.0
 92
        8
 66
   257
 43
1.0
 76
     1
 77
     6
 78
     2
 67
     7
 79
     3
170
     0
171
     0
290
     0
174
     0
 93
       13
 44
0.0
173
     0
291
     0
 45
0.0
1001
ACAD
1000
AcDbSavedByObjectVersion
1070
     0
  0
VISUALSTYLE
  5
3E
102
{ACAD_XDICTIONARY
360
1597
102
}
102
{ACAD_REACTORS
330
29
102
}
330
29
100
AcDbVisualStyle
  2

 70
    27
 71
     2
 72
     2
 73
     1
 90
        2
 40
-0.6
 41
30.0
 62
     5
 63
     7
 74
     0
 91
        4
 64
     7
 65
   257
 75
     1
175
     1
 42
1.0
 92
        8
 66
   257
 43
1.0
 76
     1
 77
     6
 78
     2
 67
     8
 79
     3
170
     0
171
     0
290
     0
174
     0
 93
        5
 44
0.0
173
     0
291
     0
 45
0.0
1001
ACAD
1000
AcDbSavedByObjectVersion
1070
     0
  0
VISUALSTYLE
  5
3D
102
{ACAD_XDICTIONARY
360
1595
102
}
102
{ACAD_REACTORS
330
29
102
}
330
29
100
AcDbVisualStyle
  2

 70
    26
 71
     2
 72
     2
 73
     1
 90
        2
 40
-0.6
 41
30.0
 62
     5
 63
     7
 74
     1
 91
       10
 64
     7
 65
   257
 75
     2
175
     1
 42
1.0
 92
        8
 66
   257
 43
1.0
 76
     1
 77
     6
 78
     2
 67
     7
 79
     3
170
     0
171
     0
290
     0
174
     0
 93
        5
 44
0.0
173
     0
291
     0
 45
0.0
1001
ACAD
1000
AcDbSavedByObjectVersion
1070
     0
  0
VISUALSTYLE
  5
3A
102
{ACAD_XDICTIONARY
360
158F
102
}
102
{ACAD_REACTORS
330
29
102
}
330
29
100
AcDbVisualStyle
  2

 70
    23
 71
     2
 72
     2
 73
     3
 90
        0
 40
-0.6
 41
-30.0
 62
     5
 63
     7
 74
     2
 91
        2
 64
     7
 65
     7
 75
     1
175
     1
 42
40.0
 92
        8
 66
     7
 43
1.0
 76
     1
 77
     6
 78
     2
 67
     7
 79
     3
170
     0
171
     0
290
     0
174
     0
 93
        1
 44
0.0
173
     0
291
     0
 45
0.0
1001
ACAD
1000
AcDbSavedByObjectVersion
1070
     0
  0
VISUALSTYLE
  5
3B
102
{ACAD_XDICTIONARY
360
1591
102
}
102
{ACAD_REACTORS
330
29
102
}
330
29
100
AcDbVisualStyle
  2

 70
    24
 71
     1
 72
     2
 73
     2
 90
        0
 40
-0.6
 41
-30.0
 62
     5
 63
     7
 74
     2
 91
        2
 64
     7
 65
     7
 75
     1
175
     1
 42
40.0
 92
       11
 66
     7
 43
1.0
 76
     1
 77
     6
 78
     2
 67
     7
 79
     6
170
     0
171
     0
290
     0
174
     0
 93
        1
 44
0.0
173
     0
291
     0
 45
0.0
1001
ACAD
1000
AcDbSavedByObjectVersion
1070
     0
  0
VISUALSTYLE
  5
36
102
{ACAD_XDICTIONARY
360
1587
102
}
102
{ACAD_REACTORS
330
29
102
}
330
29
100
AcDbVisualStyle
  2

 70
    13
 71
     2
 72
     2
 73
     0
 90
        0
 40
-0.6
 41
-30.0
 62
     5
 63
     7
 74
     1
 91
        4
 64
     7
 65
   257
 75
     1
175
     1
 42
1.0
 92
       12
 66
     7
 43
1.0
 76
     1
 77
     6
 78
     2
 67
     7
 79
     5
170
     0
171
     0
290
     0
174
     0
 93
        1
 44
0.0
173
     0
291
     1
 45
0.0
1001
ACAD
1000
AcDbSavedByObjectVersion
1070
     0
  0
VISUALSTYLE
  5
30
102
{ACAD_XDICTIONARY
360
157B
102
}
102
{ACAD_REACTORS
330
29
102
}
330
29
100
AcDbVisualStyle
  2

 70
     5
 71
     0
 72
     2
 73
     0
 90
        0
 40
-0.6
 41
-30.0
 62
     5
 63
     7
 74
     1
 91
        4
 64
     7
 65
   257
 75
     1
175
     1
 42
1.0
 92
        0
 66
   257
 43
1.0
 76
     1
 77
     6
 78
     2
 67
     7
 79
     3
170
     0
171
     0
290
     0
174
     0
 93
        1
 44
0.0
173
     0
291
     0
 45
0.0
1001
ACAD
1000
AcDbSavedByObjectVersion
1070
     0
  0
VISUALSTYLE
  5
3C
102
{ACAD_XDICTIONARY
360
1593
102
}
102
{ACAD_REACTORS
330
29
102
}
330
29
100
AcDbVisualStyle
  2

 70
    25
 71
     2
 72
     2
 73
     1
 90
        1
 40
0.5
 41
-30.0
 62
     5
 63
     7
 74
     1
 91
        0
 64
     7
 65
   257
 75
     1
175
     1
 42
1.0
 92
        8
 66
     7
 43
1.0
 76
     1
 77
     6
 78
     2
 67
     7
 79
     3
170
     0
171
     0
290
     0
174
     0
 93
       13
 44
0.0
173
     0
291
     0
 45
0.0
1001
ACAD
1000
AcDbSavedByObjectVersion
1070
     0
  0
DICTIONARYVAR
  5
56F
102
{ACAD_REACTORS
330
56C
102
}
330
56C
100
DictionaryVariables
280
     0
  1
1:1
  0
DICTIONARYVAR
  5
56E
102
{ACAD_REACTORS
330
56C
102
}
330
56C
100
DictionaryVariables
280
     0
  1
STANDARD
  0
DICTIONARYVAR
  5
56D
102
{ACAD_REACTORS
330
56C
102
}
330
56C
100
DictionaryVariables
280
     0
  1
STANDARD
  0
DICTIONARYVAR
  5
572
102
{ACAD_REACTORS
330
56C
102
}
330
56C
100
DictionaryVariables
280
     0
  1
1
  0
DICTIONARYVAR
  5
571
102
{ACAD_REACTORS
330
56C
102
}
330
56C
100
DictionaryVariables
280
     0
  1
0
  0
DICTIONARYVAR
  5
570
102
{ACAD_REACTORS
330
56C
102
}
330
56C
100
DictionaryVariables
280
     0
  1
127
  0
DICTIONARYVAR
  5
145E
102
{ACAD_REACTORS
330
56C
102
}
330
56C
100
DictionaryVariables
280
     0
  1
2
  0
DICTIONARY
  5
15A2
330
6E
100
AcDbDictionary
280
     1
281
     1
  3
ACAD_XREC_ROUNDTRIP
360
15A3
  0
DICTIONARY
  5
15A0
330
6A
100
AcDbDictionary
280
     1
281
     1
  3
ACAD_XREC_ROUNDTRIP
360
15A1
  0
DICTIONARY
  5
1A
330
19
100
AcDbDictionary
280
     1
281
     1
  3
ACAD_XREC_ROUNDTRIP
360
57D
  3
BUMPTILE
360
1C
  3
DIFFUSETILE
360
1B
  3
OPACITYTILE
360
1F
  3
REFLECTIONTILE
360
1E
  3
REFRACTIONTILE
360
20
  3
SPECULARTILE
360
1D
  0
DICTIONARY
  5
12
330
11
100
AcDbDictionary
280
     1
281
     1
  3
ACAD_XREC_ROUNDTRIP
360
57C
  3
BUMPTILE
360
14
  3
DIFFUSETILE
360
13
  3
OPACITYTILE
360
17
  3
REFLECTIONTILE
360
16
  3
REFRACTIONTILE
360
18
  3
SPECULARTILE
360
15
  0
DICTIONARY
  5
22
330
21
100
AcDbDictionary
280
     1
281
     1
  3
ACAD_XREC_ROUNDTRIP
360
57E
  3
BUMPTILE
360
24
  3
DIFFUSETILE
360
23
  3
OPACITYTILE
360
27
  3
REFLECTIONTILE
360
26
  3
REFRACTIONTILE
360
28
  3
SPECULARTILE
360
25
  0
DICTIONARY
  5
574
330
64
100
AcDbDictionary
280
     1
281
     1
  3
ACAD_ROUNDTRIP_2008_TABLESTYLE_CELLSTYLEMAP
360
1568
  3
ACAD_XREC_ROUNDTRIP
360
159F
  0
DICTIONARY
  5
1579
330
2F
100
AcDbDictionary
280
     1
281
     1
  3
ACAD_XREC_ROUNDTRIP
360
157A
  0
DICTIONARY
  5
15A4
330
40E
100
AcDbDictionary
280
     1
281
     1
  3
ACAD_XREC_ROUNDTRIP
360
15A5
  0
DICTIONARY
  5
1577
330
2E
100
AcDbDictionary
280
     1
281
     1
  3
ACAD_XREC_ROUNDTRIP
360
1578
  0
DICTIONARY
  5
1585
330
35
100
AcDbDictionary
280
     1
281
     1
  3
ACAD_XREC_ROUNDTRIP
360
1586
  0
DICTIONARY
  5
158D
330
39
100
AcDbDictionary
280
     1
281
     1
  3
ACAD_XREC_ROUNDTRIP
360
158E
  0
DICTIONARY
  5
157F
330
32
100
AcDbDictionary
280
     1
281
     1
  3
ACAD_XREC_ROUNDTRIP
360
1580
  0
DICTIONARY
  5
1583
330
34
100
AcDbDictionary
280
     1
281
     1
  3
ACAD_XREC_ROUNDTRIP
360
1584
  0
DICTIONARY
  5
159D
330
41
100
AcDbDictionary
280
     1
281
     1
  3
ACAD_XREC_ROUNDTRIP
360
159E
  0
DICTIONARY
  5
158B
330
38
100
AcDbDictionary
280
     1
281
     1
  3
ACAD_XREC_ROUNDTRIP
360
158C
  0
DICTIONARY
  5
156F
330
2A
100
AcDbDictionary
280
     1
281
     1
  3
ACAD_XREC_ROUNDTRIP
360
1570
  0
DICTIONARY
  5
1571
330
2B
100
AcDbDictionary
280
     1
281
     1
  3
ACAD_XREC_ROUNDTRIP
360
1572
  0
DICTIONARY
  5
1573
330
2C
100
AcDbDictionary
280
     1
281
     1
  3
ACAD_XREC_ROUNDTRIP
360
1574
  0
DICTIONARY
  5
1575
330
2D
100
AcDbDictionary
280
     1
281
     1
  3
ACAD_XREC_ROUNDTRIP
360
1576
  0
DICTIONARY
  5
157D
330
31
100
AcDbDictionary
280
     1
281
     1
  3
ACAD_XREC_ROUNDTRIP
360
157E
  0
DICTIONARY
  5
1599
330
3F
100
AcDbDictionary
280
     1
281
     1
  3
ACAD_XREC_ROUNDTRIP
360
159A
  0
DICTIONARY
  5
1589
330
37
100
AcDbDictionary
280
     1
281
     1
  3
ACAD_XREC_ROUNDTRIP
360
158A
  0
DICTIONARY
  5
159B
330
40
100
AcDbDictionary
280
     1
281
     1
  3
ACAD_XREC_ROUNDTRIP
360
159C
  0
DICTIONARY
  5
1581
330
33
100
AcDbDictionary
280
     1
281
     1
  3
ACAD_XREC_ROUNDTRIP
360
1582
  0
DICTIONARY
  5
1597
330
3E
100
AcDbDictionary
280
     1
281
     1
  3
ACAD_XREC_ROUNDTRIP
360
1598
  0
DICTIONARY
  5
1595
330
3D
100
AcDbDictionary
280
     1
281
     1
  3
ACAD_XREC_ROUNDTRIP
360
1596
  0
DICTIONARY
  5
158F
330
3A
100
AcDbDictionary
280
     1
281
     1
  3
ACAD_XREC_ROUNDTRIP
360
1590
  0
DICTIONARY
  5
1591
330
3B
100
AcDbDictionary
280
     1
281
     1
  3
ACAD_XREC_ROUNDTRIP
360
1592
  0
DICTIONARY
  5
1587
330
36
100
AcDbDictionary
280
     1
281
     1
  3
ACAD_XREC_ROUNDTRIP
360
1588
  0
DICTIONARY
  5
157B
330
30
100
AcDbDictionary
280
     1
281
     1
  3
ACAD_XREC_ROUNDTRIP
360
157C
  0
DICTIONARY
  5
1593
330
3C
100
AcDbDictionary
280
     1
281
     1
  3
ACAD_XREC_ROUNDTRIP
360
1594
  0
XRECORD
  5
15A3
102
{ACAD_REACTORS
330
15A2
102
}
330
15A2
100
AcDbXrecord
280
     1
102
SHADEPLOT
 70
     0
102
SHADEPLOTRESLEVEL
 70
     2
102
SHADEPLOTCUSTOMDPI
 70
   300
  0
XRECORD
  5
15A1
102
{ACAD_REACTORS
330
15A0
102
}
330
15A0
100
AcDbXrecord
280
     1
102
SHADEPLOT
 70
     0
102
SHADEPLOTRESLEVEL
 70
     2
102
SHADEPLOTCUSTOMDPI
 70
   300
  0
XRECORD
  5
57D
102
{ACAD_REACTORS
330
1A
102
}
330
1A
100
AcDbXrecord
280
     1
102
MATERIAL
148
0.0
149
0.0
149
0.0
 93
        0
 94
      127
282
     0
 72
     0
 77
     0
171
     0
175
     0
179
     0
273
     0
  0
XRECORD
  5
1C
102
{ACAD_REACTORS
330
1A
102
}
330
1A
100
AcDbXrecord
280
     1
270
     1
271
     1
  0
XRECORD
  5
1B
102
{ACAD_REACTORS
330
1A
102
}
330
1A
100
AcDbXrecord
280
     1
270
     1
271
     1
  0
XRECORD
  5
1F
102
{ACAD_REACTORS
330
1A
102
}
330
1A
100
AcDbXrecord
280
     1
270
     1
271
     1
  0
XRECORD
  5
1E
102
{ACAD_REACTORS
330
1A
102
}
330
1A
100
AcDbXrecord
280
     1
270
     1
271
     1
  0
XRECORD
  5
20
102
{ACAD_REACTORS
330
1A
102
}
330
1A
100
AcDbXrecord
280
     1
270
     1
271
     1
  0
XRECORD
  5
1D
102
{ACAD_REACTORS
330
1A
102
}
330
1A
100
AcDbXrecord
280
     1
270
     1
271
     1
  0
XRECORD
  5
57C
102
{ACAD_REACTORS
330
12
102
}
330
12
100
AcDbXrecord
280
     1
102
MATERIAL
148
0.0
149
0.0
149
0.0
 93
        0
 94
      127
282
     0
 72
     0
 77
     0
171
     0
175
     0
179
     0
273
     0
  0
XRECORD
  5
14
102
{ACAD_REACTORS
330
12
102
}
330
12
100
AcDbXrecord
280
     1
270
     1
271
     1
  0
XRECORD
  5
13
102
{ACAD_REACTORS
330
12
102
}
330
12
100
AcDbXrecord
280
     1
270
     1
271
     1
  0
XRECORD
  5
17
102
{ACAD_REACTORS
330
12
102
}
330
12
100
AcDbXrecord
280
     1
270
     1
271
     1
  0
XRECORD
  5
16
102
{ACAD_REACTORS
330
12
102
}
330
12
100
AcDbXrecord
280
     1
270
     1
271
     1
  0
XRECORD
  5
18
102
{ACAD_REACTORS
330
12
102
}
330
12
100
AcDbXrecord
280
     1
270
     1
271
     1
  0
XRECORD
  5
15
102
{ACAD_REACTORS
330
12
102
}
330
12
100
AcDbXrecord
280
     1
270
     1
271
     1
  0
XRECORD
  5
57E
102
{ACAD_REACTORS
330
22
102
}
330
22
100
AcDbXrecord
280
     1
102
MATERIAL
148
0.0
149
0.0
149
0.0
 93
        0
 94
      127
282
     0
 72
     0
 77
     0
171
     0
175
     0
179
     0
273
     0
  0
XRECORD
  5
24
102
{ACAD_REACTORS
330
22
102
}
330
22
100
AcDbXrecord
280
     1
270
     1
271
     1
  0
XRECORD
  5
23
102
{ACAD_REACTORS
330
22
102
}
330
22
100
AcDbXrecord
280
     1
270
     1
271
     1
  0
XRECORD
  5
27
102
{ACAD_REACTORS
330
22
102
}
330
22
100
AcDbXrecord
280
     1
270
     1
271
     1
  0
XRECORD
  5
26
102
{ACAD_REACTORS
330
22
102
}
330
22
100
AcDbXrecord
280
     1
270
     1
271
     1
  0
XRECORD
  5
28
102
{ACAD_REACTORS
330
22
102
}
330
22
100
AcDbXrecord
280
     1
270
     1
271
     1
  0
XRECORD
  5
25
102
{ACAD_REACTORS
330
22
102
}
330
22
100
AcDbXrecord
280
     1
270
     1
271
     1
  0
CELLSTYLEMAP
  5
1568
102
{ACAD_REACTORS
330
574
102
}
330
574
100
AcDbCellStyleMap
 90
        3
300
CELLSTYLE
  1
TABLEFORMAT_BEGIN
 90
        5
170
     1
 91
        0
 92
    32768
 62
   257
 93
        1
300
CONTENTFORMAT
  1
CONTENTFORMAT_BEGIN
 90
        0
 91
        0
 92
      512
 93
        0
300

 40
0.0
140
1.0
 94
        5
 62
     0
340
55
144
0.25
309
CONTENTFORMAT_END
171
     1
301
MARGIN
  1
CELLMARGIN_BEGIN
 40
0.06
 40
0.06
 40
0.06
 40
0.06
 40
0.18
 40
0.18
309
CELLMARGIN_END
 94
        6
 95
        1
302
GRIDFORMAT
  1
GRIDFORMAT_BEGIN
 90
        0
 91
        1
 62
     0
 92
       -2
340
0
 93
        0
 40
0.045
309
GRIDFORMAT_END
 95
        2
302
GRIDFORMAT
  1
GRIDFORMAT_BEGIN
 90
        0
 91
        1
 62
     0
 92
       -2
340
0
 93
        0
 40
0.045
309
GRIDFORMAT_END
 95
        4
302
GRIDFORMAT
  1
GRIDFORMAT_BEGIN
 90
        0
 91
        1
 62
     0
 92
       -2
340
0
 93
        0
 40
0.045
309
GRIDFORMAT_END
 95
        8
302
GRIDFORMAT
  1
GRIDFORMAT_BEGIN
 90
        0
 91
        1
 62
     0
 92
       -2
340
0
 93
        0
 40
0.045
309
GRIDFORMAT_END
 95
       16
302
GRIDFORMAT
  1
GRIDFORMAT_BEGIN
 90
        0
 91
        1
 62
     0
 92
       -2
340
0
 93
        0
 40
0.045
309
GRIDFORMAT_END
 95
       32
302
GRIDFORMAT
  1
GRIDFORMAT_BEGIN
 90
        0
 91
        1
 62
     0
 92
       -2
340
0
 93
        0
 40
0.045
309
GRIDFORMAT_END
309
TABLEFORMAT_END
  1
CELLSTYLE_BEGIN
 90
        1
 91
        1
300
_TITLE
309
CELLSTYLE_END
300
CELLSTYLE
  1
TABLEFORMAT_BEGIN
 90
        5
170
     1
 91
        0
 92
        0
 62
   257
 93
        1
300
CONTENTFORMAT
  1
CONTENTFORMAT_BEGIN
 90
        0
 91
        0
 92
      512
 93
        0
300

 40
0.0
140
1.0
 94
        5
 62
     0
340
55
144
0.18
309
CONTENTFORMAT_END
171
     1
301
MARGIN
  1
CELLMARGIN_BEGIN
 40
0.06
 40
0.06
 40
0.06
 40
0.06
 40
0.18
 40
0.18
309
CELLMARGIN_END
 94
        6
 95
        1
302
GRIDFORMAT
  1
GRIDFORMAT_BEGIN
 90
        0
 91
        1
 62
     0
 92
       -2
340
0
 93
        0
 40
0.045
309
GRIDFORMAT_END
 95
        2
302
GRIDFORMAT
  1
GRIDFORMAT_BEGIN
 90
        0
 91
        1
 62
     0
 92
       -2
340
0
 93
        0
 40
0.045
309
GRIDFORMAT_END
 95
        4
302
GRIDFORMAT
  1
GRIDFORMAT_BEGIN
 90
        0
 91
        1
 62
     0
 92
       -2
340
0
 93
        0
 40
0.045
309
GRIDFORMAT_END
 95
        8
302
GRIDFORMAT
  1
GRIDFORMAT_BEGIN
 90
        0
 91
        1
 62
     0
 92
       -2
340
0
 93
        0
 40
0.045
309
GRIDFORMAT_END
 95
       16
302
GRIDFORMAT
  1
GRIDFORMAT_BEGIN
 90
        0
 91
        1
 62
     0
 92
       -2
340
0
 93
        0
 40
0.045
309
GRIDFORMAT_END
 95
       32
302
GRIDFORMAT
  1
GRIDFORMAT_BEGIN
 90
        0
 91
        1
 62
     0
 92
       -2
340
0
 93
        0
 40
0.045
309
GRIDFORMAT_END
309
TABLEFORMAT_END
  1
CELLSTYLE_BEGIN
 90
        2
 91
        1
300
_HEADER
309
CELLSTYLE_END
300
CELLSTYLE
  1
TABLEFORMAT_BEGIN
 90
        5
170
     1
 91
        0
 92
        0
 62
   257
 93
        1
300
CONTENTFORMAT
  1
CONTENTFORMAT_BEGIN
 90
        0
 91
        0
 92
      512
 93
        0
300

 40
0.0
140
1.0
 94
        2
 62
     0
340
55
144
0.18
309
CONTENTFORMAT_END
171
     1
301
MARGIN
  1
CELLMARGIN_BEGIN
 40
0.06
 40
0.06
 40
0.06
 40
0.06
 40
0.18
 40
0.18
309
CELLMARGIN_END
 94
        6
 95
        1
302
GRIDFORMAT
  1
GRIDFORMAT_BEGIN
 90
        0
 91
        1
 62
     0
 92
       -2
340
0
 93
        0
 40
0.045
309
GRIDFORMAT_END
 95
        2
302
GRIDFORMAT
  1
GRIDFORMAT_BEGIN
 90
        0
 91
        1
 62
     0
 92
       -2
340
0
 93
        0
 40
0.045
309
GRIDFORMAT_END
 95
        4
302
GRIDFORMAT
  1
GRIDFORMAT_BEGIN
 90
        0
 91
        1
 62
     0
 92
       -2
340
0
 93
        0
 40
0.045
309
GRIDFORMAT_END
 95
        8
302
GRIDFORMAT
  1
GRIDFORMAT_BEGIN
 90
        0
 91
        1
 62
     0
 92
       -2
340
0
 93
        0
 40
0.045
309
GRIDFORMAT_END
 95
       16
302
GRIDFORMAT
  1
GRIDFORMAT_BEGIN
 90
        0
 91
        1
 62
     0
 92
       -2
340
0
 93
        0
 40
0.045
309
GRIDFORMAT_END
 95
       32
302
GRIDFORMAT
  1
GRIDFORMAT_BEGIN
 90
        0
 91
        1
 62
     0
 92
       -2
340
0
 93
        0
 40
0.045
309
GRIDFORMAT_END
309
TABLEFORMAT_END
  1
CELLSTYLE_BEGIN
 90
        3
 91
        2
300
_DATA
309
CELLSTYLE_END
  0
XRECORD
  5
159F
102
{ACAD_REACTORS
330
574
102
}
330
574
100
AcDbXrecord
280
     1
102
ACAD_ROUNDTRIP_PRE2007_TABLESTYLE
 90
      512
 91
        0
  1

 92
      512
 93
        0
  2

 94
      512
 95
        0
  3

  0
XRECORD
  5
157A
102
{ACAD_REACTORS
330
1579
102
}
330
1579
100
AcDbXrecord
280
     1
102
RTVSPropertyOp0
 70
     1
102
RTVSPropertyOp1
 70
     1
102
RTVSPropertyOp2
 70
     1
102
RTVSPropertyOp3
 70
     1
102
RTVSPropertyOp4
 70
     1
102
RTVSPropertyOp5
 70
     1
102
RTVSPropertyOp6
 70
     1
102
RTVSPropertyOp7
 70
     1
102
RTVSPropertyOp8
 70
     1
102
RTVSPropertyOp9
 70
     1
102
RTVSPropertyOp10
 70
     1
102
RTVSPropertyOp11
 70
     1
102
RTVSPropertyOp12
 70
     1
102
RTVSPropertyOp13
 70
     1
102
RTVSPropertyOp14
 70
     1
102
RTVSPropertyOp15
 70
     1
102
RTVSPropertyOp16
 70
     1
102
RTVSPropertyOp17
 70
     1
102
RTVSPropertyOp18
 70
     1
102
RTVSPropertyOp19
 70
     1
102
RTVSPropertyOp20
 70
     1
102
RTVSPropertyOp21
 70
     1
102
RTVSPropertyOp22
 70
     1
102
RTVSPropertyOp23
 70
     1
102
RTVSPropertyOp24
 70
     1
102
RTVSPropertyOp25
 70
     1
102
RTVSPropertyOp26
 70
     1
102
RTVSPropertyOp27
 70
     1
102
RTVSPropertyOp28
 70
     1
102
RTVSPropertyOp29
 70
     1
102
RTVSPropertyOp30
 70
     1
102
RTVSPropertyOp31
 70
     1
102
RTVSPropertyOp32
 70
     1
  0
XRECORD
  5
15A5
102
{ACAD_REACTORS
330
15A4
102
}
330
15A4
100
AcDbXrecord
280
     1
102
RTVSPropertyOp0
 70
     1
102
RTVSPropertyOp1
 70
     1
102
RTVSPropertyOp2
 70
     1
102
RTVSPropertyOp3
 70
     1
102
RTVSPropertyOp4
 70
     1
102
RTVSPropertyOp5
 70
     1
102
RTVSPropertyOp6
 70
     1
102
RTVSPropertyOp7
 70
     1
102
RTVSPropertyOp8
 70
     1
102
RTVSPropertyOp9
 70
     1
102
RTVSPropertyOp10
 70
     1
102
RTVSPropertyOp11
 70
     1
102
RTVSPropertyOp12
 70
     1
102
RTVSPropertyOp13
 70
     1
102
RTVSPropertyOp14
 70
     1
102
RTVSPropertyOp15
 70
     1
102
RTVSPropertyOp16
 70
     1
102
RTVSPropertyOp17
 70
     1
102
RTVSPropertyOp18
 70
     1
102
RTVSPropertyOp19
 70
     1
102
RTVSPropertyOp20
 70
     1
102
RTVSPropertyOp21
 70
     1
102
RTVSPropertyOp22
 70
     1
102
RTVSPropertyOp23
 70
     1
102
RTVSPropertyOp24
 70
     1
102
RTVSPropertyOp25
 70
     1
102
RTVSPropertyOp26
 70
     1
102
RTVSPropertyOp27
 70
     1
102
RTVSPropertyOp28
 70
     1
102
RTVSPropertyOp29
 70
     1
102
RTVSPropertyOp30
 70
     1
102
RTVSPropertyOp31
 70
     1
102
RTVSPropertyOp32
 70
     1
  0
XRECORD
  5
1578
102
{ACAD_REACTORS
330
1577
102
}
330
1577
100
AcDbXrecord
280
     1
102
RTVSPropertyOp0
 70
     1
102
RTVSPropertyOp1
 70
     1
102
RTVSPropertyOp2
 70
     1
102
RTVSPropertyOp3
 70
     1
102
RTVSPropertyOp4
 70
     1
102
RTVSPropertyOp5
 70
     1
102
RTVSPropertyOp6
 70
     1
102
RTVSPropertyOp7
 70
     1
102
RTVSPropertyOp8
 70
     1
102
RTVSPropertyOp9
 70
     1
102
RTVSPropertyOp10
 70
     1
102
RTVSPropertyOp11
 70
     1
102
RTVSPropertyOp12
 70
     1
102
RTVSPropertyOp13
 70
     1
102
RTVSPropertyOp14
 70
     1
102
RTVSPropertyOp15
 70
     1
102
RTVSPropertyOp16
 70
     1
102
RTVSPropertyOp17
 70
     1
102
RTVSPropertyOp18
 70
     1
102
RTVSPropertyOp19
 70
     1
102
RTVSPropertyOp20
 70
     1
102
RTVSPropertyOp21
 70
     1
102
RTVSPropertyOp22
 70
     1
102
RTVSPropertyOp23
 70
     1
102
RTVSPropertyOp24
 70
     1
102
RTVSPropertyOp25
 70
     1
102
RTVSPropertyOp26
 70
     1
102
RTVSPropertyOp27
 70
     1
102
RTVSPropertyOp28
 70
     1
102
RTVSPropertyOp29
 70
     1
102
RTVSPropertyOp30
 70
     1
102
RTVSPropertyOp31
 70
     1
102
RTVSPropertyOp32
 70
     1
  0
XRECORD
  5
1586
102
{ACAD_REACTORS
330
1585
102
}
330
1585
100
AcDbXrecord
280
     1
102
RTVSPropertyOp0
 70
     1
102
RTVSPropertyOp1
 70
     1
102
RTVSPropertyOp2
 70
     1
102
RTVSPropertyOp3
 70
     1
102
RTVSPropertyOp4
 70
     1
102
RTVSPropertyOp5
 70
     1
102
RTVSPropertyOp6
 70
     1
102
RTVSPropertyOp7
 70
     1
102
RTVSPropertyOp8
 70
     1
102
RTVSPropertyOp9
 70
     1
102
RTVSPropertyOp10
 70
     1
102
RTVSPropertyOp11
 70
     1
102
RTVSPropertyOp12
 70
     1
102
RTVSPropertyOp13
 70
     1
102
RTVSPropertyOp14
 70
     1
102
RTVSPropertyOp15
 70
     1
102
RTVSPropertyOp16
 70
     1
102
RTVSPropertyOp17
 70
     1
102
RTVSPropertyOp18
 70
     1
102
RTVSPropertyOp19
 70
     1
102
RTVSPropertyOp20
 70
     1
102
RTVSPropertyOp21
 70
     1
102
RTVSPropertyOp22
 70
     1
102
RTVSPropertyOp23
 70
     1
102
RTVSPropertyOp24
 70
     1
102
RTVSPropertyOp25
 70
     1
102
RTVSPropertyOp26
 70
     1
102
RTVSPropertyOp27
 70
     1
102
RTVSPropertyOp28
 70
     1
102
RTVSPropertyOp29
 70
     1
102
RTVSPropertyOp30
 70
     1
102
RTVSPropertyOp31
 70
     1
102
RTVSPropertyOp32
 70
     1
  0
XRECORD
  5
158E
102
{ACAD_REACTORS
330
158D
102
}
330
158D
100
AcDbXrecord
280
     1
102
RTVSPropertyOp0
 70
     1
102
RTVSPropertyOp1
 70
     1
102
RTVSPropertyOp2
 70
     1
102
RTVSPropertyOp3
 70
     1
102
RTVSPropertyOp4
 70
     1
102
RTVSPropertyOp5
 70
     1
102
RTVSPropertyOp6
 70
     1
102
RTVSPropertyOp7
 70
     1
102
RTVSPropertyOp8
 70
     1
102
RTVSPropertyOp9
 70
     1
102
RTVSPropertyOp10
 70
     1
102
RTVSPropertyOp11
 70
     1
102
RTVSPropertyOp12
 70
     1
102
RTVSPropertyOp13
 70
     1
102
RTVSPropertyOp14
 70
     1
102
RTVSPropertyOp15
 70
     1
102
RTVSPropertyOp16
 70
     1
102
RTVSPropertyOp17
 70
     1
102
RTVSPropertyOp18
 70
     1
102
RTVSPropertyOp19
 70
     1
102
RTVSPropertyOp20
 70
     1
102
RTVSPropertyOp21
 70
     1
102
RTVSPropertyOp22
 70
     1
102
RTVSPropertyOp23
 70
     1
102
RTVSPropertyOp24
 70
     1
102
RTVSPropertyOp25
 70
     1
102
RTVSPropertyOp26
 70
     1
102
RTVSPropertyOp27
 70
     1
102
RTVSPropertyOp28
 70
     1
102
RTVSPropertyOp29
 70
     1
102
RTVSPropertyOp30
 70
     1
102
RTVSPropertyOp31
 70
     1
102
RTVSPropertyOp32
 70
     1
  0
XRECORD
  5
1580
102
{ACAD_REACTORS
330
157F
102
}
330
157F
100
AcDbXrecord
280
     1
102
RTVSPropertyOp0
 70
     1
102
RTVSPropertyOp1
 70
     1
102
RTVSPropertyOp2
 70
     1
102
RTVSPropertyOp3
 70
     1
102
RTVSPropertyOp4
 70
     1
102
RTVSPropertyOp5
 70
     1
102
RTVSPropertyOp6
 70
     1
102
RTVSPropertyOp7
 70
     1
102
RTVSPropertyOp8
 70
     1
102
RTVSPropertyOp9
 70
     1
102
RTVSPropertyOp10
 70
     1
102
RTVSPropertyOp11
 70
     1
102
RTVSPropertyOp12
 70
     1
102
RTVSPropertyOp13
 70
     1
102
RTVSPropertyOp14
 70
     1
102
RTVSPropertyOp15
 70
     1
102
RTVSPropertyOp16
 70
     1
102
RTVSPropertyOp17
 70
     1
102
RTVSPropertyOp18
 70
     1
102
RTVSPropertyOp19
 70
     1
102
RTVSPropertyOp20
 70
     1
102
RTVSPropertyOp21
 70
     1
102
RTVSPropertyOp22
 70
     1
102
RTVSPropertyOp23
 70
     1
102
RTVSPropertyOp24
 70
     1
102
RTVSPropertyOp25
 70
     1
102
RTVSPropertyOp26
 70
     1
102
RTVSPropertyOp27
 70
     1
102
RTVSPropertyOp28
 70
     1
102
RTVSPropertyOp29
 70
     1
102
RTVSPropertyOp30
 70
     1
102
RTVSPropertyOp31
 70
     1
102
RTVSPropertyOp32
 70
     1
  0
XRECORD
  5
1584
102
{ACAD_REACTORS
330
1583
102
}
330
1583
100
AcDbXrecord
280
     1
102
RTVSPropertyOp0
 70
     1
102
RTVSPropertyOp1
 70
     1
102
RTVSPropertyOp2
 70
     1
102
RTVSPropertyOp3
 70
     1
102
RTVSPropertyOp4
 70
     1
102
RTVSPropertyOp5
 70
     1
102
RTVSPropertyOp6
 70
     1
102
RTVSPropertyOp7
 70
     1
102
RTVSPropertyOp8
 70
     1
102
RTVSPropertyOp9
 70
     1
102
RTVSPropertyOp10
 70
     1
102
RTVSPropertyOp11
 70
     1
102
RTVSPropertyOp12
 70
     1
102
RTVSPropertyOp13
 70
     1
102
RTVSPropertyOp14
 70
     1
102
RTVSPropertyOp15
 70
     1
102
RTVSPropertyOp16
 70
     1
102
RTVSPropertyOp17
 70
     1
102
RTVSPropertyOp18
 70
     1
102
RTVSPropertyOp19
 70
     1
102
RTVSPropertyOp20
 70
     1
102
RTVSPropertyOp21
 70
     1
102
RTVSPropertyOp22
 70
     1
102
RTVSPropertyOp23
 70
     1
102
RTVSPropertyOp24
 70
     1
102
RTVSPropertyOp25
 70
     1
102
RTVSPropertyOp26
 70
     1
102
RTVSPropertyOp27
 70
     1
102
RTVSPropertyOp28
 70
     1
102
RTVSPropertyOp29
 70
     1
102
RTVSPropertyOp30
 70
     1
102
RTVSPropertyOp31
 70
     1
102
RTVSPropertyOp32
 70
     1
  0
XRECORD
  5
159E
102
{ACAD_REACTORS
330
159D
102
}
330
159D
100
AcDbXrecord
280
     1
102
RTVSPropertyOp0
 70
     0
102
RTVSPropertyOp1
 70
     0
102
RTVSPropertyOp2
 70
     0
102
RTVSPropertyOp3
 70
     0
102
RTVSPropertyOp4
 70
     0
102
RTVSPropertyOp5
 70
     0
102
RTVSPropertyOp6
 70
     0
102
RTVSPropertyOp7
 70
     0
102
RTVSPropertyOp8
 70
     0
102
RTVSPropertyOp9
 70
     0
102
RTVSPropertyOp10
 70
     0
102
RTVSPropertyOp11
 70
     0
102
RTVSPropertyOp12
 70
     0
102
RTVSPropertyOp13
 70
     0
102
RTVSPropertyOp14
 70
     2
102
RTVSPropertyOp15
 70
     0
102
RTVSPropertyOp16
 70
     0
102
RTVSPropertyOp17
 70
     0
102
RTVSPropertyOp18
 70
     0
102
RTVSPropertyOp19
 70
     0
102
RTVSPropertyOp20
 70
     0
102
RTVSPropertyOp21
 70
     0
102
RTVSPropertyOp22
 70
     0
102
RTVSPropertyOp23
 70
     0
102
RTVSPropertyOp24
 70
     0
102
RTVSPropertyOp25
 70
     0
102
RTVSPropertyOp26
 70
     0
102
RTVSPropertyOp27
 70
     0
102
RTVSPropertyOp28
 70
     0
102
RTVSPropertyOp29
 70
     0
102
RTVSPropertyOp30
 70
     0
102
RTVSPropertyOp31
 70
     0
102
RTVSPropertyOp32
 70
     0
  0
XRECORD
  5
158C
102
{ACAD_REACTORS
330
158B
102
}
330
158B
100
AcDbXrecord
280
     1
102
RTVSPropertyOp0
 70
     1
102
RTVSPropertyOp1
 70
     1
102
RTVSPropertyOp2
 70
     1
102
RTVSPropertyOp3
 70
     1
102
RTVSPropertyOp4
 70
     1
102
RTVSPropertyOp5
 70
     1
102
RTVSPropertyOp6
 70
     1
102
RTVSPropertyOp7
 70
     1
102
RTVSPropertyOp8
 70
     1
102
RTVSPropertyOp9
 70
     1
102
RTVSPropertyOp10
 70
     1
102
RTVSPropertyOp11
 70
     1
102
RTVSPropertyOp12
 70
     1
102
RTVSPropertyOp13
 70
     1
102
RTVSPropertyOp14
 70
     1
102
RTVSPropertyOp15
 70
     1
102
RTVSPropertyOp16
 70
     1
102
RTVSPropertyOp17
 70
     1
102
RTVSPropertyOp18
 70
     1
102
RTVSPropertyOp19
 70
     1
102
RTVSPropertyOp20
 70
     1
102
RTVSPropertyOp21
 70
     1
102
RTVSPropertyOp22
 70
     1
102
RTVSPropertyOp23
 70
     1
102
RTVSPropertyOp24
 70
     1
102
RTVSPropertyOp25
 70
     1
102
RTVSPropertyOp26
 70
     1
102
RTVSPropertyOp27
 70
     1
102
RTVSPropertyOp28
 70
     1
102
RTVSPropertyOp29
 70
     1
102
RTVSPropertyOp30
 70
     1
102
RTVSPropertyOp31
 70
     1
102
RTVSPropertyOp32
 70
     1
  0
XRECORD
  5
1570
102
{ACAD_REACTORS
330
156F
102
}
330
156F
100
AcDbXrecord
280
     1
102
RTVSPropertyOp0
 70
     1
102
RTVSPropertyOp1
 70
     1
102
RTVSPropertyOp2
 70
     1
102
RTVSPropertyOp3
 70
     1
102
RTVSPropertyOp4
 70
     1
102
RTVSPropertyOp5
 70
     1
102
RTVSPropertyOp6
 70
     1
102
RTVSPropertyOp7
 70
     1
102
RTVSPropertyOp8
 70
     1
102
RTVSPropertyOp9
 70
     1
102
RTVSPropertyOp10
 70
     1
102
RTVSPropertyOp11
 70
     1
102
RTVSPropertyOp12
 70
     1
102
RTVSPropertyOp13
 70
     1
102
RTVSPropertyOp14
 70
     1
102
RTVSPropertyOp15
 70
     1
102
RTVSPropertyOp16
 70
     1
102
RTVSPropertyOp17
 70
     1
102
RTVSPropertyOp18
 70
     1
102
RTVSPropertyOp19
 70
     1
102
RTVSPropertyOp20
 70
     1
102
RTVSPropertyOp21
 70
     1
102
RTVSPropertyOp22
 70
     1
102
RTVSPropertyOp23
 70
     1
102
RTVSPropertyOp24
 70
     1
102
RTVSPropertyOp25
 70
     1
102
RTVSPropertyOp26
 70
     1
102
RTVSPropertyOp27
 70
     1
102
RTVSPropertyOp28
 70
     1
102
RTVSPropertyOp29
 70
     1
102
RTVSPropertyOp30
 70
     1
102
RTVSPropertyOp31
 70
     1
102
RTVSPropertyOp32
 70
     1
  0
XRECORD
  5
1572
102
{ACAD_REACTORS
330
1571
102
}
330
1571
100
AcDbXrecord
280
     1
102
RTVSPropertyOp0
 70
     1
102
RTVSPropertyOp1
 70
     1
102
RTVSPropertyOp2
 70
     1
102
RTVSPropertyOp3
 70
     1
102
RTVSPropertyOp4
 70
     1
102
RTVSPropertyOp5
 70
     1
102
RTVSPropertyOp6
 70
     1
102
RTVSPropertyOp7
 70
     1
102
RTVSPropertyOp8
 70
     1
102
RTVSPropertyOp9
 70
     1
102
RTVSPropertyOp10
 70
     1
102
RTVSPropertyOp11
 70
     1
102
RTVSPropertyOp12
 70
     1
102
RTVSPropertyOp13
 70
     1
102
RTVSPropertyOp14
 70
     1
102
RTVSPropertyOp15
 70
     1
102
RTVSPropertyOp16
 70
     1
102
RTVSPropertyOp17
 70
     1
102
RTVSPropertyOp18
 70
     1
102
RTVSPropertyOp19
 70
     1
102
RTVSPropertyOp20
 70
     1
102
RTVSPropertyOp21
 70
     1
102
RTVSPropertyOp22
 70
     1
102
RTVSPropertyOp23
 70
     1
102
RTVSPropertyOp24
 70
     1
102
RTVSPropertyOp25
 70
     1
102
RTVSPropertyOp26
 70
     1
102
RTVSPropertyOp27
 70
     1
102
RTVSPropertyOp28
 70
     1
102
RTVSPropertyOp29
 70
     1
102
RTVSPropertyOp30
 70
     1
102
RTVSPropertyOp31
 70
     1
102
RTVSPropertyOp32
 70
     1
  0
XRECORD
  5
1574
102
{ACAD_REACTORS
330
1573
102
}
330
1573
100
AcDbXrecord
280
     1
102
RTVSPropertyOp0
 70
     1
102
RTVSPropertyOp1
 70
     1
102
RTVSPropertyOp2
 70
     1
102
RTVSPropertyOp3
 70
     1
102
RTVSPropertyOp4
 70
     1
102
RTVSPropertyOp5
 70
     1
102
RTVSPropertyOp6
 70
     1
102
RTVSPropertyOp7
 70
     1
102
RTVSPropertyOp8
 70
     1
102
RTVSPropertyOp9
 70
     1
102
RTVSPropertyOp10
 70
     1
102
RTVSPropertyOp11
 70
     1
102
RTVSPropertyOp12
 70
     1
102
RTVSPropertyOp13
 70
     1
102
RTVSPropertyOp14
 70
     1
102
RTVSPropertyOp15
 70
     1
102
RTVSPropertyOp16
 70
     1
102
RTVSPropertyOp17
 70
     1
102
RTVSPropertyOp18
 70
     1
102
RTVSPropertyOp19
 70
     1
102
RTVSPropertyOp20
 70
     1
102
RTVSPropertyOp21
 70
     1
102
RTVSPropertyOp22
 70
     1
102
RTVSPropertyOp23
 70
     1
102
RTVSPropertyOp24
 70
     1
102
RTVSPropertyOp25
 70
     1
102
RTVSPropertyOp26
 70
     1
102
RTVSPropertyOp27
 70
     1
102
RTVSPropertyOp28
 70
     1
102
RTVSPropertyOp29
 70
     1
102
RTVSPropertyOp30
 70
     1
102
RTVSPropertyOp31
 70
     1
102
RTVSPropertyOp32
 70
     1
  0
XRECORD
  5
1576
102
{ACAD_REACTORS
330
1575
102
}
330
1575
100
AcDbXrecord
280
     1
102
RTVSPropertyOp0
 70
     1
102
RTVSPropertyOp1
 70
     1
102
RTVSPropertyOp2
 70
     1
102
RTVSPropertyOp3
 70
     1
102
RTVSPropertyOp4
 70
     1
102
RTVSPropertyOp5
 70
     1
102
RTVSPropertyOp6
 70
     1
102
RTVSPropertyOp7
 70
     1
102
RTVSPropertyOp8
 70
     1
102
RTVSPropertyOp9
 70
     1
102
RTVSPropertyOp10
 70
     1
102
RTVSPropertyOp11
 70
     1
102
RTVSPropertyOp12
 70
     1
102
RTVSPropertyOp13
 70
     1
102
RTVSPropertyOp14
 70
     1
102
RTVSPropertyOp15
 70
     1
102
RTVSPropertyOp16
 70
     1
102
RTVSPropertyOp17
 70
     1
102
RTVSPropertyOp18
 70
     1
102
RTVSPropertyOp19
 70
     1
102
RTVSPropertyOp20
 70
     1
102
RTVSPropertyOp21
 70
     1
102
RTVSPropertyOp22
 70
     1
102
RTVSPropertyOp23
 70
     1
102
RTVSPropertyOp24
 70
     1
102
RTVSPropertyOp25
 70
     1
102
RTVSPropertyOp26
 70
     1
102
RTVSPropertyOp27
 70
     1
102
RTVSPropertyOp28
 70
     1
102
RTVSPropertyOp29
 70
     1
102
RTVSPropertyOp30
 70
     1
102
RTVSPropertyOp31
 70
     1
102
RTVSPropertyOp32
 70
     1
  0
XRECORD
  5
157E
102
{ACAD_REACTORS
330
157D
102
}
330
157D
100
AcDbXrecord
280
     1
102
RTVSPropertyOp0
 70
     1
102
RTVSPropertyOp1
 70
     1
102
RTVSPropertyOp2
 70
     1
102
RTVSPropertyOp3
 70
     1
102
RTVSPropertyOp4
 70
     1
102
RTVSPropertyOp5
 70
     1
102
RTVSPropertyOp6
 70
     1
102
RTVSPropertyOp7
 70
     1
102
RTVSPropertyOp8
 70
     1
102
RTVSPropertyOp9
 70
     1
102
RTVSPropertyOp10
 70
     1
102
RTVSPropertyOp11
 70
     1
102
RTVSPropertyOp12
 70
     1
102
RTVSPropertyOp13
 70
     1
102
RTVSPropertyOp14
 70
     1
102
RTVSPropertyOp15
 70
     1
102
RTVSPropertyOp16
 70
     1
102
RTVSPropertyOp17
 70
     1
102
RTVSPropertyOp18
 70
     1
102
RTVSPropertyOp19
 70
     1
102
RTVSPropertyOp20
 70
     1
102
RTVSPropertyOp21
 70
     1
102
RTVSPropertyOp22
 70
     1
102
RTVSPropertyOp23
 70
     1
102
RTVSPropertyOp24
 70
     1
102
RTVSPropertyOp25
 70
     1
102
RTVSPropertyOp26
 70
     1
102
RTVSPropertyOp27
 70
     1
102
RTVSPropertyOp28
 70
     1
102
RTVSPropertyOp29
 70
     1
102
RTVSPropertyOp30
 70
     1
102
RTVSPropertyOp31
 70
     1
102
RTVSPropertyOp32
 70
     1
  0
XRECORD
  5
159A
102
{ACAD_REACTORS
330
1599
102
}
330
1599
100
AcDbXrecord
280
     1
102
RTVSPropertyOp0
 70
     0
102
RTVSPropertyOp1
 70
     0
102
RTVSPropertyOp2
 70
     0
102
RTVSPropertyOp3
 70
     0
102
RTVSPropertyOp4
 70
     0
102
RTVSPropertyOp5
 70
     0
102
RTVSPropertyOp6
 70
     0
102
RTVSPropertyOp7
 70
     0
102
RTVSPropertyOp8
 70
     0
102
RTVSPropertyOp9
 70
     0
102
RTVSPropertyOp10
 70
     0
102
RTVSPropertyOp11
 70
     0
102
RTVSPropertyOp12
 70
     0
102
RTVSPropertyOp13
 70
     0
102
RTVSPropertyOp14
 70
     2
102
RTVSPropertyOp15
 70
     0
102
RTVSPropertyOp16
 70
     0
102
RTVSPropertyOp17
 70
     0
102
RTVSPropertyOp18
 70
     0
102
RTVSPropertyOp19
 70
     0
102
RTVSPropertyOp20
 70
     0
102
RTVSPropertyOp21
 70
     0
102
RTVSPropertyOp22
 70
     0
102
RTVSPropertyOp23
 70
     0
102
RTVSPropertyOp24
 70
     0
102
RTVSPropertyOp25
 70
     0
102
RTVSPropertyOp26
 70
     0
102
RTVSPropertyOp27
 70
     0
102
RTVSPropertyOp28
 70
     0
102
RTVSPropertyOp29
 70
     0
102
RTVSPropertyOp30
 70
     0
102
RTVSPropertyOp31
 70
     0
102
RTVSPropertyOp32
 70
     0
  0
XRECORD
  5
158A
102
{ACAD_REACTORS
330
1589
102
}
330
1589
100
AcDbXrecord
280
     1
102
RTVSPropertyOp0
 70
     1
102
RTVSPropertyOp1
 70
     1
102
RTVSPropertyOp2
 70
     1
102
RTVSPropertyOp3
 70
     1
102
RTVSPropertyOp4
 70
     1
102
RTVSPropertyOp5
 70
     1
102
RTVSPropertyOp6
 70
     1
102
RTVSPropertyOp7
 70
     1
102
RTVSPropertyOp8
 70
     1
102
RTVSPropertyOp9
 70
     1
102
RTVSPropertyOp10
 70
     1
102
RTVSPropertyOp11
 70
     1
102
RTVSPropertyOp12
 70
     1
102
RTVSPropertyOp13
 70
     1
102
RTVSPropertyOp14
 70
     1
102
RTVSPropertyOp15
 70
     1
102
RTVSPropertyOp16
 70
     1
102
RTVSPropertyOp17
 70
     1
102
RTVSPropertyOp18
 70
     1
102
RTVSPropertyOp19
 70
     1
102
RTVSPropertyOp20
 70
     1
102
RTVSPropertyOp21
 70
     1
102
RTVSPropertyOp22
 70
     1
102
RTVSPropertyOp23
 70
     1
102
RTVSPropertyOp24
 70
     1
102
RTVSPropertyOp25
 70
     1
102
RTVSPropertyOp26
 70
     1
102
RTVSPropertyOp27
 70
     1
102
RTVSPropertyOp28
 70
     1
102
RTVSPropertyOp29
 70
     1
102
RTVSPropertyOp30
 70
     1
102
RTVSPropertyOp31
 70
     1
102
RTVSPropertyOp32
 70
     1
  0
XRECORD
  5
159C
102
{ACAD_REACTORS
330
159B
102
}
330
159B
100
AcDbXrecord
280
     1
102
RTVSPropertyOp0
 70
     0
102
RTVSPropertyOp1
 70
     0
102
RTVSPropertyOp2
 70
     0
102
RTVSPropertyOp3
 70
     0
102
RTVSPropertyOp4
 70
     0
102
RTVSPropertyOp5
 70
     0
102
RTVSPropertyOp6
 70
     0
102
RTVSPropertyOp7
 70
     0
102
RTVSPropertyOp8
 70
     0
102
RTVSPropertyOp9
 70
     0
102
RTVSPropertyOp10
 70
     0
102
RTVSPropertyOp11
 70
     0
102
RTVSPropertyOp12
 70
     0
102
RTVSPropertyOp13
 70
     0
102
RTVSPropertyOp14
 70
     2
102
RTVSPropertyOp15
 70
     0
102
RTVSPropertyOp16
 70
     0
102
RTVSPropertyOp17
 70
     0
102
RTVSPropertyOp18
 70
     0
102
RTVSPropertyOp19
 70
     0
102
RTVSPropertyOp20
 70
     0
102
RTVSPropertyOp21
 70
     0
102
RTVSPropertyOp22
 70
     0
102
RTVSPropertyOp23
 70
     0
102
RTVSPropertyOp24
 70
     0
102
RTVSPropertyOp25
 70
     0
102
RTVSPropertyOp26
 70
     0
102
RTVSPropertyOp27
 70
     0
102
RTVSPropertyOp28
 70
     0
102
RTVSPropertyOp29
 70
     0
102
RTVSPropertyOp30
 70
     0
102
RTVSPropertyOp31
 70
     0
102
RTVSPropertyOp32
 70
     0
  0
XRECORD
  5
1582
102
{ACAD_REACTORS
330
1581
102
}
330
1581
100
AcDbXrecord
280
     1
102
RTVSPropertyOp0
 70
     1
102
RTVSPropertyOp1
 70
     1
102
RTVSPropertyOp2
 70
     1
102
RTVSPropertyOp3
 70
     1
102
RTVSPropertyOp4
 70
     1
102
RTVSPropertyOp5
 70
     1
102
RTVSPropertyOp6
 70
     1
102
RTVSPropertyOp7
 70
     1
102
RTVSPropertyOp8
 70
     1
102
RTVSPropertyOp9
 70
     1
102
RTVSPropertyOp10
 70
     1
102
RTVSPropertyOp11
 70
     1
102
RTVSPropertyOp12
 70
     1
102
RTVSPropertyOp13
 70
     1
102
RTVSPropertyOp14
 70
     1
102
RTVSPropertyOp15
 70
     1
102
RTVSPropertyOp16
 70
     1
102
RTVSPropertyOp17
 70
     1
102
RTVSPropertyOp18
 70
     1
102
RTVSPropertyOp19
 70
     1
102
RTVSPropertyOp20
 70
     1
102
RTVSPropertyOp21
 70
     1
102
RTVSPropertyOp22
 70
     1
102
RTVSPropertyOp23
 70
     1
102
RTVSPropertyOp24
 70
     1
102
RTVSPropertyOp25
 70
     1
102
RTVSPropertyOp26
 70
     1
102
RTVSPropertyOp27
 70
     1
102
RTVSPropertyOp28
 70
     1
102
RTVSPropertyOp29
 70
     1
102
RTVSPropertyOp30
 70
     1
102
RTVSPropertyOp31
 70
     1
102
RTVSPropertyOp32
 70
     1
  0
XRECORD
  5
1598
102
{ACAD_REACTORS
330
1597
102
}
330
1597
100
AcDbXrecord
280
     1
102
RTVSPropertyOp0
 70
     1
102
RTVSPropertyOp1
 70
     1
102
RTVSPropertyOp2
 70
     1
102
RTVSPropertyOp3
 70
     1
102
RTVSPropertyOp4
 70
     1
102
RTVSPropertyOp5
 70
     1
102
RTVSPropertyOp6
 70
     1
102
RTVSPropertyOp7
 70
     1
102
RTVSPropertyOp8
 70
     1
102
RTVSPropertyOp9
 70
     1
102
RTVSPropertyOp10
 70
     1
102
RTVSPropertyOp11
 70
     1
102
RTVSPropertyOp12
 70
     1
102
RTVSPropertyOp13
 70
     1
102
RTVSPropertyOp14
 70
     1
102
RTVSPropertyOp15
 70
     1
102
RTVSPropertyOp16
 70
     1
102
RTVSPropertyOp17
 70
     1
102
RTVSPropertyOp18
 70
     1
102
RTVSPropertyOp19
 70
     1
102
RTVSPropertyOp20
 70
     1
102
RTVSPropertyOp21
 70
     1
102
RTVSPropertyOp22
 70
     1
102
RTVSPropertyOp23
 70
     1
102
RTVSPropertyOp24
 70
     1
102
RTVSPropertyOp25
 70
     1
102
RTVSPropertyOp26
 70
     1
102
RTVSPropertyOp27
 70
     1
102
RTVSPropertyOp28
 70
     1
102
RTVSPropertyOp29
 70
     1
102
RTVSPropertyOp30
 70
     1
102
RTVSPropertyOp31
 70
     1
102
RTVSPropertyOp32
 70
     1
  0
XRECORD
  5
1596
102
{ACAD_REACTORS
330
1595
102
}
330
1595
100
AcDbXrecord
280
     1
102
RTVSPropertyOp0
 70
     1
102
RTVSPropertyOp1
 70
     1
102
RTVSPropertyOp2
 70
     1
102
RTVSPropertyOp3
 70
     1
102
RTVSPropertyOp4
 70
     1
102
RTVSPropertyOp5
 70
     1
102
RTVSPropertyOp6
 70
     1
102
RTVSPropertyOp7
 70
     1
102
RTVSPropertyOp8
 70
     1
102
RTVSPropertyOp9
 70
     1
102
RTVSPropertyOp10
 70
     1
102
RTVSPropertyOp11
 70
     1
102
RTVSPropertyOp12
 70
     1
102
RTVSPropertyOp13
 70
     1
102
RTVSPropertyOp14
 70
     1
102
RTVSPropertyOp15
 70
     1
102
RTVSPropertyOp16
 70
     1
102
RTVSPropertyOp17
 70
     1
102
RTVSPropertyOp18
 70
     1
102
RTVSPropertyOp19
 70
     1
102
RTVSPropertyOp20
 70
     1
102
RTVSPropertyOp21
 70
     1
102
RTVSPropertyOp22
 70
     1
102
RTVSPropertyOp23
 70
     1
102
RTVSPropertyOp24
 70
     1
102
RTVSPropertyOp25
 70
     1
102
RTVSPropertyOp26
 70
     1
102
RTVSPropertyOp27
 70
     1
102
RTVSPropertyOp28
 70
     1
102
RTVSPropertyOp29
 70
     1
102
RTVSPropertyOp30
 70
     1
102
RTVSPropertyOp31
 70
     1
102
RTVSPropertyOp32
 70
     1
  0
XRECORD
  5
1590
102
{ACAD_REACTORS
330
158F
102
}
330
158F
100
AcDbXrecord
280
     1
102
RTVSPropertyOp0
 70
     1
102
RTVSPropertyOp1
 70
     1
102
RTVSPropertyOp2
 70
     1
102
RTVSPropertyOp3
 70
     1
102
RTVSPropertyOp4
 70
     1
102
RTVSPropertyOp5
 70
     1
102
RTVSPropertyOp6
 70
     1
102
RTVSPropertyOp7
 70
     1
102
RTVSPropertyOp8
 70
     1
102
RTVSPropertyOp9
 70
     1
102
RTVSPropertyOp10
 70
     1
102
RTVSPropertyOp11
 70
     1
102
RTVSPropertyOp12
 70
     1
102
RTVSPropertyOp13
 70
     1
102
RTVSPropertyOp14
 70
     1
102
RTVSPropertyOp15
 70
     1
102
RTVSPropertyOp16
 70
     1
102
RTVSPropertyOp17
 70
     1
102
RTVSPropertyOp18
 70
     1
102
RTVSPropertyOp19
 70
     1
102
RTVSPropertyOp20
 70
     1
102
RTVSPropertyOp21
 70
     1
102
RTVSPropertyOp22
 70
     1
102
RTVSPropertyOp23
 70
     1
102
RTVSPropertyOp24
 70
     1
102
RTVSPropertyOp25
 70
     1
102
RTVSPropertyOp26
 70
     1
102
RTVSPropertyOp27
 70
     1
102
RTVSPropertyOp28
 70
     1
102
RTVSPropertyOp29
 70
     1
102
RTVSPropertyOp30
 70
     1
102
RTVSPropertyOp31
 70
     1
102
RTVSPropertyOp32
 70
     1
  0
XRECORD
  5
1592
102
{ACAD_REACTORS
330
1591
102
}
330
1591
100
AcDbXrecord
280
     1
102
RTVSPropertyOp0
 70
     1
102
RTVSPropertyOp1
 70
     1
102
RTVSPropertyOp2
 70
     1
102
RTVSPropertyOp3
 70
     1
102
RTVSPropertyOp4
 70
     1
102
RTVSPropertyOp5
 70
     1
102
RTVSPropertyOp6
 70
     1
102
RTVSPropertyOp7
 70
     1
102
RTVSPropertyOp8
 70
     1
102
RTVSPropertyOp9
 70
     1
102
RTVSPropertyOp10
 70
     1
102
RTVSPropertyOp11
 70
     1
102
RTVSPropertyOp12
 70
     1
102
RTVSPropertyOp13
 70
     1
102
RTVSPropertyOp14
 70
     1
102
RTVSPropertyOp15
 70
     1
102
RTVSPropertyOp16
 70
     1
102
RTVSPropertyOp17
 70
     1
102
RTVSPropertyOp18
 70
     1
102
RTVSPropertyOp19
 70
     1
102
RTVSPropertyOp20
 70
     1
102
RTVSPropertyOp21
 70
     1
102
RTVSPropertyOp22
 70
     1
102
RTVSPropertyOp23
 70
     1
102
RTVSPropertyOp24
 70
     1
102
RTVSPropertyOp25
 70
     1
102
RTVSPropertyOp26
 70
     1
102
RTVSPropertyOp27
 70
     1
102
RTVSPropertyOp28
 70
     1
102
RTVSPropertyOp29
 70
     1
102
RTVSPropertyOp30
 70
     1
102
RTVSPropertyOp31
 70
     1
102
RTVSPropertyOp32
 70
     1
  0
XRECORD
  5
1588
102
{ACAD_REACTORS
330
1587
102
}
330
1587
100
AcDbXrecord
280
     1
102
RTVSPropertyOp0
 70
     1
102
RTVSPropertyOp1
 70
     1
102
RTVSPropertyOp2
 70
     1
102
RTVSPropertyOp3
 70
     1
102
RTVSPropertyOp4
 70
     1
102
RTVSPropertyOp5
 70
     1
102
RTVSPropertyOp6
 70
     1
102
RTVSPropertyOp7
 70
     1
102
RTVSPropertyOp8
 70
     1
102
RTVSPropertyOp9
 70
     1
102
RTVSPropertyOp10
 70
     1
102
RTVSPropertyOp11
 70
     1
102
RTVSPropertyOp12
 70
     1
102
RTVSPropertyOp13
 70
     1
102
RTVSPropertyOp14
 70
     1
102
RTVSPropertyOp15
 70
     1
102
RTVSPropertyOp16
 70
     1
102
RTVSPropertyOp17
 70
     1
102
RTVSPropertyOp18
 70
     1
102
RTVSPropertyOp19
 70
     1
102
RTVSPropertyOp20
 70
     1
102
RTVSPropertyOp21
 70
     1
102
RTVSPropertyOp22
 70
     1
102
RTVSPropertyOp23
 70
     1
102
RTVSPropertyOp24
 70
     1
102
RTVSPropertyOp25
 70
     1
102
RTVSPropertyOp26
 70
     1
102
RTVSPropertyOp27
 70
     1
102
RTVSPropertyOp28
 70
     1
102
RTVSPropertyOp29
 70
     1
102
RTVSPropertyOp30
 70
     1
102
RTVSPropertyOp31
 70
     1
102
RTVSPropertyOp32
 70
     1
  0
XRECORD
  5
157C
102
{ACAD_REACTORS
330
157B
102
}
330
157B
100
AcDbXrecord
280
     1
102
RTVSPropertyOp0
 70
     1
102
RTVSPropertyOp1
 70
     1
102
RTVSPropertyOp2
 70
     1
102
RTVSPropertyOp3
 70
     1
102
RTVSPropertyOp4
 70
     1
102
RTVSPropertyOp5
 70
     1
102
RTVSPropertyOp6
 70
     1
102
RTVSPropertyOp7
 70
     1
102
RTVSPropertyOp8
 70
     1
102
RTVSPropertyOp9
 70
     1
102
RTVSPropertyOp10
 70
     1
102
RTVSPropertyOp11
 70
     1
102
RTVSPropertyOp12
 70
     1
102
RTVSPropertyOp13
 70
     1
102
RTVSPropertyOp14
 70
     1
102
RTVSPropertyOp15
 70
     1
102
RTVSPropertyOp16
 70
     1
102
RTVSPropertyOp17
 70
     1
102
RTVSPropertyOp18
 70
     1
102
RTVSPropertyOp19
 70
     1
102
RTVSPropertyOp20
 70
     1
102
RTVSPropertyOp21
 70
     1
102
RTVSPropertyOp22
 70
     1
102
RTVSPropertyOp23
 70
     1
102
RTVSPropertyOp24
 70
     1
102
RTVSPropertyOp25
 70
     1
102
RTVSPropertyOp26
 70
     1
102
RTVSPropertyOp27
 70
     1
102
RTVSPropertyOp28
 70
     1
102
RTVSPropertyOp29
 70
     1
102
RTVSPropertyOp30
 70
     1
102
RTVSPropertyOp31
 70
     1
102
RTVSPropertyOp32
 70
     1
  0
XRECORD
  5
1594
102
{ACAD_REACTORS
330
1593
102
}
330
1593
100
AcDbXrecord
280
     1
102
RTVSPropertyOp0
 70
     1
102
RTVSPropertyOp1
 70
     1
102
RTVSPropertyOp2
 70
     1
102
RTVSPropertyOp3
 70
     1
102
RTVSPropertyOp4
 70
     1
102
RTVSPropertyOp5
 70
     1
102
RTVSPropertyOp6
 70
     1
102
RTVSPropertyOp7
 70
     1
102
RTVSPropertyOp8
 70
     1
102
RTVSPropertyOp9
 70
     1
102
RTVSPropertyOp10
 70
     1
102
RTVSPropertyOp11
 70
     1
102
RTVSPropertyOp12
 70
     1
102
RTVSPropertyOp13
 70
     1
102
RTVSPropertyOp14
 70
     1
102
RTVSPropertyOp15
 70
     1
102
RTVSPropertyOp16
 70
     1
102
RTVSPropertyOp17
 70
     1
102
RTVSPropertyOp18
 70
     1
102
RTVSPropertyOp19
 70
     1
102
RTVSPropertyOp20
 70
     1
102
RTVSPropertyOp21
 70
     1
102
RTVSPropertyOp22
 70
     1
102
RTVSPropertyOp23
 70
     1
102
RTVSPropertyOp24
 70
     1
102
RTVSPropertyOp25
 70
     1
102
RTVSPropertyOp26
 70
     1
102
RTVSPropertyOp27
 70
     1
102
RTVSPropertyOp28
 70
     1
102
RTVSPropertyOp29
 70
     1
102
RTVSPropertyOp30
 70
     1
102
RTVSPropertyOp31
 70
     1
102
RTVSPropertyOp32
 70
     1
  0
ENDSEC
  0
EOF
